Song name
# A B C D E F G H I J K L M N O P Q R S T U V W X Y Z

Black Dahlia Murder - To Breathless Oblivion Acoustic tab

Help us improve GuitareTab! Take a short survey!
This is the Outro from the Song To A Breathless Oblivion by Black Dahlia Murder

Tuning: C-Standard
Difficulty: Novice-Intermediate
Legend:

"~" : Slide
"..." : Hold
"HP" : Hammering and Pulloff

Acoustic Guitar:

C |----------------|---5~3-----|--1~3-----|-----------|
G |---------3--5---|-----------|----------|-HP--------|
D#|-----3----------|-----------|----------|9109---7...|
A#|---0---0--------|-----------|----------|0...-0-....|
F |-1......-------0|~1-----1...|0-----0...|-----------|
C |----------------|-----------|----------|-----------|


C |----------------|--------------|-----------|-----------|
G |---------3--5---|---8~10.......|--10~6.....|-HP--------|
D#|-----3----------|--------------|-----------|9109-7...--|
A#|---0---0--------|--------(8)...|-------7...|0..........|
F |-1......--------|--------------|0----------------------|
C |---------------5|~6------------|-----------|-----------|

Solo Left Channel (Every note in vibrato)

C |-------------|----|----|----|----|----|-------|----|
G |-------------|-15-|----|----|----|-15-|-------|----|
D#|-------------|----|-12-|-15-|----|----|-14-12-|----|
A#|-------------|----|----|----|-12-|----|-------|-12-|
F |-------------|----|----|----|----|----|-------|----|
C |-------------|----|----|----|----|----|-------|----|

Solo Right Channel (Every note in vibrato)

C |-------------|----|-------|----|----|----|-------|----|
G |-------------|----|-14-11-|-15-|----|----|-14-11-|-15-|
D#|-------------|-15-|-------|----|-15-|-15-|-------|----|
A#|-------------|----|-------|----|----|----|-------|----|
F |-------------|----|-------|----|----|----|-------|----|
C |-------------|----|-------|----|----|----|-------|----|

That's All :) Comments and Ratings are welcome. Enjoy !
Related for To Breathless Oblivion Acoustic tab