Song name
# A B C D E F G H I J K L M N O P Q R S T U V W X Y Z

Black Dahlia Murder - A Dead Refrain tab

Help us improve GuitareTab! Take a short survey!
- - - - - - - - - - - - - - - - - - - - - - - - - - - - - - - - - - - - - - - -
			     A Dead Refrain - The Black Dahlia Murder
- - - - - - - - - - - - - - - - - - - - - - - - - - - - - - - - - - - - - - - -

Tabbed by: Armon 
Email: aaferrari369@hotmail.com
Tuning: i play it in e, but i only know the intro so do as you will.. 

i just think this riff sounds pretty cool and it isnt here so i tabbed it. 
i'll post the rest when i have it.


e|---------------------------------------------------------------------------|
B|---------------------------------------------------------------------------|
G|---------------------------------------------------------------------------|
D|5-3-2-3-5-7-5-3-53--5-7-75--7-8--------------------------------------------|
A|---------------------------------------------------------------------------|
E|------------------00------00-----------------------------------------------|
	Scream...... 
e|---------------------------------------------------------------------------|
B|---------------------------------------------------------------------------|
G|---------------------------------------------------------------------------|
D|5-3-2-3-5-7-5-3-53--5-7-75--7-8--------------------------------------------|
A|---------------------------------------------------------------------------|
E|------------------00------00-----------------------------------------------|
	Singing Starts.......
e|---------------------------------------------------------------------------|
B|---------------------------------------------------------------------------|
G|---------------------------------------------------------------------------|
D|5-3-2-3-5-7-5-3-53--5-7-75--7-8--------------------------------------------|
A|---------------------------------------------------------------------------|
E|------------------00------00-----------------------------------------------|

e|---------------------------------------------------------------------------|
B|---------------------------------------------------------------------------|
G|---------------------------------------------------------------------------|
D|5-3-2-3-5-7-5-3-53--5-7-75--7-8--------------------------------------------|
A|---------------------------------------------------------------------------|
E|------------------00------00-----------------------------------------------|

Yeah thats about it. its pretty simple so im sure its right. 
Related for A Dead Refrain tab