Song name
# A B C D E F G H I J K L M N O P Q R S T U V W X Y Z

Black Dahlia Murder - Worship Only What You Bleed tab

Alright, I'm not 100% on this, but it sounds just about right.
If you'd like to make any suggestions or comments feel free
to do so. Enjoy.

Tuning: Drop C Standard (Not Open C)

From Lowest to Highest

C,F,Bb,Eb,G,C

I believe that's it.

 ----------------------------------------------------------------------|
 ----------------------------------------------------------------------|
 ----------------------------------------------------------------------|
 ------------------5---5-------4---2---------------2---2-------4-------|
 --------2-3-2-------------2----------------4-------------1------------|
 --3-0-3-------3-0---0---0---0---0---3-2-0-2---2-0---0---0---0---0-----|
PM . . .       . .   .   .   .   .   . . . .   . .   .   .   .   .


 ----------------------------------------------------------------------|
 ----------------------------------------------------------------------|
 ----------------------------------------------------------------------|
 ------------------5---5-------4---2---------------2---2-------4-------|
 --------2-3-2-------------2-----------------4-------------1-----------|
 --3-0-3-------3-0---0---0---0---0---3-2-0-2---2-0---0---0---0---0-----|
PM . . .       . .   .   .   .   .   . . . .   . .   .   .   .   .

 ----------------------------------------------------------------------|
 ----------------------------------------------------------------------|
 ----------------------------------------------------------------------|
 ------------------5---5-------4---2------------------------4----------|
 --------2-3-2-------------2------------------4-------5-4-2-2-2~-------|
 --3-0-3-------3-0---0---0---0---0----3-2-0-2---2-0---3-2-0---0~-------|
PM . . .       . .   .   .   .   .    . . . .   . .   . . . .
Tap to rate this tab
# A B C D E F G H I J K L M N O P Q R S T U V W X Y Z