Song name
# A B C D E F G H I J K L M N O P Q R S T U V W X Y Z

Black Dahlia Murder - Nocturnal tab

Artist: Black Dahlia Murder
Song: Nocturnal
Tabber: Mike
Tabber Email for Comments, Concerns,and/or Corrections: Ipaydagitare@aol.com


Palm Mute= .
Tremolo Picked Note= "

C|------------------------------------------------------------------------|
G|------------------------------------------------------------------------|
Eb|-----------------------------------------------------------------------|
A#|2-2-2-2-------------2-2-2-2-------------2-2-2-2-------------2-2-2-2----|
F|-0-0-0-0-------------0-0-0-0-------------0-0-0-0-------------0-0-0-0----|
C|---------1-1-1-1-1-1---------4-4-4-4-4-4---------1-1-1-1-1-1------------|
Pm   . .                 . .                 . .                 . .

 |-----------------------------------------------------------------------|
 |-----------------------------------------------------------------------|
 |1-------1--2"---5"---2"---5"-4"-5"-4"-5"--4"---------------------------|
 |-2-----------2-2--2-2--2-2--------------6"-----------------------------|
 |--3-2-3----------------------------------------------------------------|
 |-----------------------------------------------------------------------|
Pm

 |-----------------------------------------------------------------------|
 |------------5"-3"------------------------------------------------------|
 |-2"---5"---------5"-4"-5"-4"-5"--4"------------------------------------|
 |---2-2--2-2---2----------------6"--------------------------------------|
 |-----------------------------------------------------------------------|
 |-----------------------------------------------------------------------|
Pm

Will Try to get the rest later!
Tap to rate this tab
 
# A B C D E F G H I J K L M N O P Q R S T U V W X Y Z