Song name
# A B C D E F G H I J K L M N O P Q R S T U V W X Y Z

Black Dahlia Murder - I Will Return tab

"I Will Return"
Deflorate
The Black Dahlia Murder


questions, comments or corrections...
josh- secondeathsingerazrai2@yahoo.com

Tuning: C,F,A#,D#,G,C


Intro(0:00-0:30)


Gt.1
|----------------------------------------------------- -------------------|
|-------------------------------------------------------------------------|
|----------14-------15-------14----------------14-------15-------14-------|
|-------17----17-------17-------17----------17----17-------17-------17----|
|----17----------17-------17-------17----17----------17-------17-------17-|
|-15----------------------------------15----------------------------------|


|-------------------------------------------------------------------------|
|-------------------------------------------------------------------------|
|----------10-------11-------10----------------17-------20-------19-------|
|-------13----13-------13-------13----------17----17-------17-------17----|
|----13----------13-------13-------13----17----------17-------17-------17-|
|-11----------------------------------14----------------------------------|


|-------------------------------------------------------------------------|
|-------------------------------------------------------------------------|
|----------14-------15-------14----------------14-------15-------14-------|
|-------17----17-------17-------17----------17----17-------17-------17----|
|----17----------17-------17-------17----17----------17-------17-------17-|
|-15----------------------------------15----------------------------------|


|------ ------------------------------------------------------------------|
|-------------------------------------------------------------------------|
|----------10-------11-------10----------------17-------15----------------|
|-------13----13-------13-------13----------17----17-------17----16-17----|
|----13----------13-------13-------13----17----------17-------17-------14-|
|-11----------------------------------14----------------------------------|


Intro
Gt.2
****DROPPED**** dont ask why(A#,F,A#,...etc)

|------------------------------------------------------------|
|------------------------------------------------------------|
|------------------------------------------------------------|
|-5--5--5------5--5-------5--5--5--5--5--5--5--5--5--5--5--5-|
|-5--5--5------5--5-------5--5--5--5--5--5--5--5--5--5--5--5-|
|-5--5--5------5--5-------5--5--5--5--5--5--5--5--5--5--5--5-|


|------------------------------------------------------------|
|------------------------------------------------------------|
|------------------------------------------------------------|
|-1--1--1------1--1-------4--4--4--4--------4--4--4--4-------|
|-1--1--1------1--1-------4--4--4--4--------4--4--4--4-------|
|-1--1--1------1--1-------4--4--4--4--------4--4--4--4-------|

*****back to C standard******(C,F,A#,...etc)

(0:33-0:46)
                                     _________________________________
                                                                     1\
|------------------------------------------------------------------- --|
|----------------------------------------------------------------------|
|-1212-----------------------------------------------------------------|
|-----1212--------------------------------------1313-1212-99-----------|
|---------1010-1313-1212-1010-99-1010----99-1212-------------1313-1212-|
|------------------------------------1010------------------------------|

                                       _______________________________
                                                                     2\
                                      |----------------------------- --|
                                      |--------------------------------|
                                      |--------------------------------|
                                      |12121212121213131010101010101010|
                                      |--------------------------------|
                                      |--------------------------------|

(0:46-0:50)
|----------------------------------|
|----------------------------------|
|-/12--12--/12--12----/11--11--/11-|
|----------------------------------|
|-/10--10--/10--10----/9---9---/9--|
|----------------------------------|

(0:52-1:09


|-----------------------------------------|
|-----------------------------------------|
|-----------------------------------------|
|-----------------------------------------|
|-5-4-5-----------------------------5-----|
|-3-2-3--3-3-3--3-3-3--3-3-3--3-2-3---3-2-|

__________________________________________
                                        1 \
|--------------------------------------- --|
|------------------------------------------|
|-12-11-12---------------------12----11----|
|------------------------------------------|
|-10-9--10-10-10-10--10-10-10--10-----9----|
|------------------------------------------|


 ________________________________________
                                         2\
|--------------------------------------- --|
|------------------------------------------|
|------------------------------11----------|
|-8----------------------------------------|
|------------------------------9-----------|
|-6----------------------------------------|

the next part i havent quite firured out yet (1:09-1:17)


(1:45-2:02)
|----------------------------------------------------------------------------------|
|----------------------------------------------------------------------------------|
|----------------------------------------------------------------------------------|
|------------------------------------------------------------------------------8---|
|-5-------------1-------55555555555555555--5-------------1-------5-33333333333-----|
|-3---333-333-3---3-2-3--------------------3---333-333-3---3-2-3---------------6---|


thats most of the song, still working on the solo and various fills but feel free to try 
figure them out.
any questions, comments or corrections hit me up secondeathsingerazrail2@yahoo.com
Tap to rate this tab
 
# A B C D E F G H I J K L M N O P Q R S T U V W X Y Z