Song name
# A B C D E F G H I J K L M N O P Q R S T U V W X Y Z

Black Dahlia Murder - Necropolis tab

Tabbed by:BIGMARCUSking
Email:

The Black Dahlia Murder- Necropolis

Tuning:C standard(C-F-Bb-Eb-G-C)

Guitar 1:
-------------------------------------------------------------------------|
-------------------------------------------------------------------------|
-------------------------------------------------------------------------|
-9------------9------------9------------9-------------5------------5-----|
---------5------------5------------5------------5-------------5----------|
---7-6-7---7----7-6-7---7----7-6-7---7----7-6-7---7-----6-3-6---6----6-3-|
   . . .   .    . . .   .    . . .   .    . . .   .     . . .   .    . .

-------------------------------------------------------------------------|
-------------------------------------------------------------------------|
-------------------------------------------------------------------------|
--5-----------5-----------------9------------9-----------9-----------9---|
---------5-------------5-----------------5-----------5-----------5-------|
6---6-3-6---6----6-3-6---6-3-6-----7-6-7---7---7-6-7---7---7-6-7---7-----|
.   . . .   .    . . .   . . .     . . .   .   . . .   .   . . .   .

-------------------------------------------------------------------------|
-------------------------------------------------------------------------|
-------------------------------------------------------------------------|
-------------8-----------8------------8----------------8-----------------|
-------5-------------7-----------7------------7----------------7---------|
-7-6-7---7-----9-6-9---9---9-6-9---9----9-6-9---9-6-9----9-6-9---9-------|
 . . .   .     . . .   .   . . .   .    . . .   . . .    . . .   .


Guitar 2:
-------------------------------------------------------------------------|
-------------------------------------------------------------------------|
-------------------------------------------------------------------------|
-9----------------------------------------------------5------------5-----|
-9------------------------------------------------------------5----------|
-7------------------------------------------------------6-3-6---6----6-3-|
                                                         . . .   .    . .

--------------------------------------------------------------------------|
--------------------------------------------------------------------------|
--------------------------------------------------------------------------|
---5-----------5-----------------9------------9-----------9-----------9---|
----------5-------------5-----------------5-----------5-----------5-------|
-6---6-3-6---6----6-3-6---6-3-6-----7-6-7---7---7-6-7---7---7-6-7---7-----|
 .   . . .   .    . . .   . . .     . . .   .   . . .   .   . . .   .

--------------------------------------------------------------------------|
--------------------------------------------------------------------------|
--------------------------------------------------------------------------|
-------------8-----------8------------8----------------8------------------|
-------5-------------7-----------7------------7----------------7----------|
-7-6-7---7-----9-6-9---9---9-6-9---9----9-6-9---9-6-9----9-6-9---9--------|
 . . .   .     . . .   .   . . .   .    . . .   . . .    . . .   .

 Guitars 1+2:

--------------------------------------------------------------|
--------------------------------------------------------------|
-----------------------4/3/4----------------------------------|
-5//9--5--4------------x/x/x----------------------------------|
-x//x--x--4--444-444---2/1/2--4-4-4---------------------------|
-3//7--3--2--222-222----------2-2-2---------------------------|
             ... ...          . . .
Tap to rate this tab
 
# A B C D E F G H I J K L M N O P Q R S T U V W X Y Z