Song name
# A B C D E F G H I J K L M N O P Q R S T U V W X Y Z

Black Dahlia Murder - Necropolis tab

Necropolis
The Black Dahlia Murder
Deflorate


Tabbed by Seth Sanders

Tuned To C Standard

Gtr I (C F Bb Eb G C)
Gtr II (C F Bb Eb G C)
Gtr III (C F Bb Eb G C)
Gtr IV (C F Bb Eb G C)

 Intro
  Q=158
 4/4
  Gtr I
    PM----|         PM--|           PM--|        PM--|
  |--3--| |--3--| |-3-| |-3--|   |-3--| |-3--| |-3-| |-3--|
  E E   E E   E E E E E E  E E   E  E E E  E E E E E E  E E
|------------------------------|-----------------------------|
|------------------------------|-----------------------------|
|------------------------------|-----------------------------|
|-9---------------9------------|-9-------------9-------------|
|------------------------------|-----------------------------|
|---7---6-7--10p7---7-6-7-10p7-|----7-6-7-10p7---7-6-7-10p7--|
|
| Gtr II
|                                                    |-3--|
| E   E   H.                     H.                  E  E E
|------------------------------|-----------------------------|
|------------------------------|-----------------------------|
|------------------------------|-----------------------------|
|-9---x------------------------|--------------------------9S=|
|-9---x------------------------|-----------------------------|
|-7---x------------------------|-----------------------------|


    PM--|       PM--|         PM--|       PM|   PM
  |-3-| |-3-| |-3-| |-3-|   |-3-| |-3-| |-3-| |-3-|
  E E E E E E E E E E E E   E E E E E E E E E E E E
|-------------------------|-------------------------|
|-------------------------|-------------------------|
|-------------------------|-------------------------|
|-5-----------5-----------|-5-----------5-----4---8-|
|-------------------------|-------------------------|
|---6-3-6-7p6---6-3-6-7p6-|---6-3-6-7p6---6-3---6---|
|
|   PM--|       PM--|         PM--|   PM  PM|   PM
| |-3-| |-3-| |-3-| |-3-|   |-3-| |-3-| |-3-| |-3-|
| E E E E E E E E E E E E   E E E E E E E E E E E E
|-------------------------|-------------------------|
|-------------------------|-------------------------|
|-------------------------|-------------------------|
|-5-----------5-----------|-5-----------5---------5-|
|-------------------------|---------5---------5-----|
|---6-3-6-7p6---6-3-6-7p6-|---6-3-6---6---6-3---6---|


  Gtrs I, II
    PM--|        PM--|          PM--|        PM--|
  |-3-| |-3--| |-3-| |-3--|   |-3-| |-3--| |-3-| |-3--|
  E E E E  E E E E E E  E E   E E E E  E E E E E E  E E
|---------------------------|---------------------------|
|---------------------------|---------------------------|
|---------------------------|---------------------------|
|-9------------9------------|-9------------9------------|
|---------------------------|---------------------------|
|---7-6-7-10p7---7-6-7-10p7-|---7-6-7-10p7---7-6-7-10p7-|


  Gtr I
    PM--|        PM--|          PM--|        PM----|
  |-3-| |-3--| |-3-| |-3--|   |-3-| |-3--| |-3-| |-3--|
  E E E E  E E E E E E  E E   E E E E  E E E E E E  E E
|---------------------------|---------------------------||
|---------------------------|---------------------------||
|---------------------------|---------------------------||
|-8------------8------------|-8------------8----------8-||
|---------------------------|-----------------------7---||
|---9-6-9-12p9---9-6-9-12p9-|---9-6-9-12p9---9-6-9------||
|
| Gtr II
|   PM--|        PM--|          PM--|        PM----|
| |-3-| |-3--| |-3-| |-3--|   |-3-| |-3--| |-3-| |-3--|
| E E E E  E E E E E E  E E   E E E E  E E E E E E  E E
|---------------------------|---------------------------||
|---------------------------|---------------------------||
|---------------------------|---------------------------||
|---------------------------|---------------------------||
|-9-7---7-10p7-9-7---7-10p7-|-9-7---7------9-7---7-10-9-||
|-----6------------6--------|-----6----9p6-----6--------||


 Pre-Verse
           PM----|          PM--|
  |-3--| |3| |-3-|   |-3--| |-3-|
  Q  Q Q Q E E E E   Q  Q Q Q Q Q
|------------------|--------------||
|------------------|--------------||
|------------------|--------------||
|-9-\5-5-4---------|-9-\8S9-------||
|-x--x-x-x-4-4-4-4-|-x--x-x-2-4-1-||
|-7-\3-3-2-2-2-2-2-|-7-\6S7-2-2-2-||
|
|          PM----|
| |-3--| |3| |-3-|   |-3--| |-3-|
| Q  Q Q Q E E E E   Q  Q Q Q Q Q
|------------------|--------------||
|------------------|--------------||
|------------------|--------7-6-3-||
|-5--5-5-4---------|-5-\4S5-x-x-x-||
|-x--x-x-x-4-4-4-4-|-x--x-x-5-4-1-||
|-3--3-3-2-2-2-2-2-|-3-\2S3-------||


   Verse
    Gtrs I, II
      PM--|        PM--|          PM--|        PM--|
    |-3-| |-3--| |-3-| |-3--|   |-3-| |-3--| |-3-| |-3--|
    E E E E  E E E E E E  E E   E E E E  E E E E E E  E E
||----------------------------|----------------------------|
||o---------------------------|----------------------------|
||----------------------------|----------------------------|
||--9------------9------------|-9------------9-------------|
||o---------------------------|----------------------------|
||----7-6-7-10p7---7-6-7-10p7-|---7-6-7-10p7---7-6-7-10p7--|


  1.
  Gtr I
    PM--|        PM--|          PM--|        PM--|
  |-3-| |-3--| |-3-| |-3--|   |-3-| |-3--| |-3-| |-3--|
  E E E E  E E E E E E  E E   E E E E  E E E E E E  E E
|---------------------------|----------------------------||
|---------------------------|---------------------------o||
|---------------------------|----------------------------||
|-8------------8------------|-5------------5-------------||
|---------------------------|---------------------------o||
|---9-6-9-12p9---9-6-9-12p9-|---6-3-6--7p6---6-3-6--7p6--||
|
| Gtr II
|   PM--|        PM--|          PM--|        PM--|
| |-3-| |-3--| |-3-| |-3--|   |-3-| |-3--| |-3-| |-3--|
| E E E E  E E E E E E  E E   E E E E  E E E E E E  E E
|---------------------------|----------------------------||
|---------------------------|---------------------------o||
|---------------------------|----------------------------||
|---------------------------|-9------------9-------------||
|-9-7---7-10p7-9-7---7-10p7-|---------------------------o||
|-----6------------6--------|---9-7-9-10p9---9-7-9-10p9--||


  2.
    PM--|        PM--|          PM--|        PM--|
  |-3-| |-3--| |-3-| |-3--|   |-3-| |-3--| |-3-| |-3--|
  E E E E  E E E E E E  E E   E E E E  E E E E E E  E E
|---------------------------|---------------------------||
|---------------------------|---------------------------||
|---------------------------|---------------------------||
|-5------------5------------|-8------------8------------||
|---------------------------|---------------------------||
|---6-3-6--7p6---6-3-6--7p6-|---9-6-9-12p9---9-6-9-12p9-||
|
|   PM--|        PM--|          PM--|        PM--|
| |-3-| |-3--| |-3-| |-3--|   |-3-| |-3--| |-3-| |-3--|
| E E E E  E E E E E E  E E   E E E E  E E E E E E  E E
|---------------------------|---------------------------||
|---------------------------|---------------------------||
|---------------------------|---------------------------||
|-9------------9------------|---------------------------||
|---------------------------|-9-7---7-10p7-9-7---7-10p7-||
|---9-7-9-10p9---9-7-9-10p9-|-----6------------6--------||


   Chorus
    Gtr I
    PM----|
    |-3-| |-3-| |-3--|  |--3--|  |--3--|  |--3--|  |--3--|  |--3--|
    S S S S S S S S  S  S  S  S  S  S  S  S  S  S  S  S  S  S  S  S
||------------------------------------------------------------------|
||o-----------------------------------------------------------------|
||------------------------------------------------------------------|
||----------9-9-9-9-------------------------------------------------|
||o-----------------10-10-10-10--9--9--9--9--9--9--9--9--9--9--9--9-|
||--7-7-7-7---------------------------------------------------------|
|
|   Gtr II
|   PM---------------------------------------------------------------
|   |-3-| |-3-| |-3--|  |--3--|  |--3--|  |--3--|  |--3--|  |--3--|
|   S S S S S S S S  S  S  S  S  S  S  S  S  S  S  S  S  S  S  S  S
||------------------------------------------------------------------|
||o-----------------------------------------------------------------|
||------------------------------------------------------------------|
||------------------------------------------------------------------|
||o-----------------------------------------------------------------|
||--7-7-7-7-7-7-7-7--7--7--7--7-10-10-10-10-10-10-10-10-10-10-10-10-|


  PM-----------------------------------------------------------|
  |-3-| |-3-| |-3--|  |--3--|  |--3--|  |--3--|  |--3--|  |--3--|
  S S S S S S S S  S  S  S  S  S  S  S  S  S  S  S  S  S  S  S  S
|------------------------------------------------------------------|
|------------------------------------------------------------------|
|------------------------------------------------------------------|
|------------------------------------------------------------------|
|-----------------------------------------------------10-10-10-10--|
|-7-7-7-7-7-7-7-7--7--7--7--7-10-10-10-10-10-10-10-10--------------|
|
|-------|
| |-3-| |-3-| |-3--|  |--3--|  |--3--|  |--3--|  |--3--|  |--3--|
| S S S S S S S S  S  S  S  S  S  S  S  S  S  S  S  S  S  S  S  S
|------------------------------------------------------------------|
|------------------------------------------------------------------|
|------------------------------------------------------------------|
|---------9-9-9-9--------------------------------------------------|
|-----------------10-10-10-10--9--9--9--9--9--9--9--9--7--7--7--7--|
|-7-7-7-7----------------------------------------------------------|


   PM---------|
   |---3---|   |---3---|   |---3---|   |---3---| |-3-| |-3-| |-3--|  |--3--|
   S   S   S   S   S   S   S   S   S   S   S   S S S S S S S S S  S  S  S  S
|----------------------------------------------------------------------------|
|----------------------------------------------------------------------------|
|----------------------------------------------------------------------------|
|----------------------------------------------------------------------------|
|--7---7---7---7---7---7---7---7--10--10--10--10-9-9-9-9-9-9-9-9-10-10-10-10-|
|----------------------------------------------------------------------------|
|
|  PM-------------------------------------------------------------------------
|  |---3---|   |---3---|   |---3---|   |---3---| |-3-| |-3-| |-3--|  |--3--|
|  S   S   S   S   S   S   S   S   S   S   S   S S S S S S S S S  S  S  S  S
|----------------------------------------------------------------------------|
|----------------------------------------------------------------------------|
|----------------------------------------------------------------------------|
|----------------------------------------------------------------------------|
|-(1)-(1)-(1)-(1)-(1)-(1)-(1)-(1)-(1)-(1)-(1)-(1)----------------------------|
|--2---2---2---2---2---2---2---2---2---2---2---2S9-9-9-9-9-9-9-9--9--9--9--9-|


  1.
  |-3-| |-3-| |-3-| |-3-| |-3-| |-3-| |-3-| |-3-|
  S S S S S S S S S S S S S S S S S S S S S S S S
|---------------------------------------------------||
|--------------------------------------------------o||
|---------------------------------------------------||
|---------------------------------------------------||
|-9-9-9-9-9-9-9-9-9-9-9-9-9-9-9-9-7-7-7-7----------o||
|-----------------------------------------9-9-9-9---||
|
|---------------------------------------------|
| |-3-| |-3-| |-3-| |-3-| |-3-|   |-3-|   |-3-|
| S S S S S S S S S S S S S S e   S S e   S S e
|---------------------------------------------------||
|--------------------------------------------------o||
|---------------------------------------------------||
|---------------------------------------------------||
|--------------------------------------------------o||
|-7-7-7-7-7-7-7-7-7-7-7-7-7-7-7---7-7-7---6-6-6-----||


  2.
  |-3-| |-3-| |-3-| |-3-|  |--3--|  |--3--|  |--3--|  |--3--|
  S S S S S S S S S S S S  S  S  S  S  S  S  S  S  S  S  S  S
|-------------------------------------------------------------||
|-------------------------------------------------------------||
|-------------------------------------------------------------||
|-8-8-8-8-8-8-8-8-8-8-8-8--8--8--8--8--8--8--8--8--8--8--8--8-||
|-------------------------------------------------------------||
|-------------------------------------------------------------||
|
| PM-------------------------------------------------------|
| |-3-| |-3-| |-3-| |-3-|  |--3--|  |--3--|  |--3--|  |--3--|
| S S S S S S S S S S S S  S  S  S  S  S  S  S  S  S  S  S  S
|-------------------------------------------------------------||
|-------------------------------------------------------------||
|-------------------------------------------------------------||
|-------------------------------------------------------------||
|-------------------------------------------------------------||
|-7-7-7-7-7-7-7-7-7-7-7-7-10-10-10-10-10-10-10-10-10-10-10-10-||


   Verse
    Gtrs I, II
      PM--|        PM--|          PM--|        PM--|
    |-3-| |-3--| |-3-| |-3--|   |-3-| |-3--| |-3-| |-3--|
    E E E E  E E E E E E  E E   E E E E  E E E E E E  E E
||----------------------------|----------------------------|
||o---------------------------|----------------------------|
||----------------------------|----------------------------|
||--9------------9------------|-9------------9-------------|
||o---------------------------|----------------------------|
||----7-6-7-10p7---7-6-7-10p7-|---7-6-7-10p7---7-6-7-10p7--|


  1.
  Gtr I
    PM--|        PM--|          PM--|        PM--|
  |-3-| |-3--| |-3-| |-3--|   |-3-| |-3--| |-3-| |-3--|
  E E E E  E E E E E E  E E   E E E E  E E E E E E  E E
|---------------------------|----------------------------||
|---------------------------|---------------------------o||
|---------------------------|----------------------------||
|-8------------8------------|-5------------5-------------||
|---------------------------|---------------------------o||
|---9-6-9-12p9---9-6-9-12p9-|---6-3-6--7p6---6-3-6--7p6--||
|
| Gtr II
|   PM--|        PM--|          PM--|        PM--|
| |-3-| |-3--| |-3-| |-3--|   |-3-| |-3--| |-3-| |-3--|
| E E E E  E E E E E E  E E   E E E E  E E E E E E  E E
|---------------------------|----------------------------||
|---------------------------|---------------------------o||
|---------------------------|----------------------------||
|---------------------------|-9------------9-------------||
|-9-7---7-10p7-9-7---7-10p7-|---------------------------o||
|-----6------------6--------|---9-7-9-10p9---9-7-9-10p9--||


  2.
    PM--|        PM--|          PM--|      PM--------------|
  |-3-| |-3--| |-3-| |-3--|   |-3-| |-3--| |-3-| |-3-| |-3-|
  E E E E  E E E E E E  E E   E E E E  E E S S e S S e S S e
|---------------------------|--------------------------------||
|---------------------------|--------------------------------||
|---------------------------|--------------------------------||
|-5------------5------------|-8------------------------------||
|---------------------------|--------------7-7-7-7-7-7-7-7-7-||
|---6-3-6--7p6---6-3-6--7p6-|---9-6-9-12p9-6-6-6-6-6-6-6-6-6-||
|
|   PM--|        PM--|          PM--|      PM--------------|
| |-3-| |-3--| |-3-| |-3--|   |-3-| |-3--| |-3-| |-3-| |-3-|
| E E E E  E E E E E E  E E   E E E E  E E S S e S S e S S e
|---------------------------|--------------------------------||
|---------------------------|--------------------------------||
|---------------------------|--------------------------------||
|-9------------9------------|--------------------------------||
|---------------------------|-9-7---7-10p7-4-4-4-4-4-4-4-4-4-||
|---9-7-9-10p9---9-7-9-10p9-|-----6--------2-2-2-2-2-2-2-2-2-||


 Pre-Chorus
    PM------|             PM|       PM|
  |--3--| |--3--|   |---3---| |---3---|
  E E Q Q Q Q E E   E +E  Q Q E +E  Q Q
|-----------------|---------------------|
|-----------------|---------------------|
|-----------------|---------------------|
|-5-----------4p2-|-4-(4)-----0-(0)-----|
|-2-2-2-2-2-2-----|-1-(1)-2-2-1-(1)-2-2-|
|---0-0-0-0-0-----|-------0-0-------0-0-|
|
|   PM------|             PM|       PM|
| |--3--| |--3--|   |---3---| |---3---|
| E E Q Q Q Q E E   E +E  Q Q E +E  Q Q
|-----------------|---------------------|
|-----------------|---------------------|
|-----------------|---------------------|
|-2---------------|---------------------|
|---2-2-2-2-2-5p4-|-5-(5)-2-2-1-(1)-2-2-|
|---0-0-0-0-0-----|-3-(3)-0-0-2-(2)-0-0-|


    PM------|       ~     ~     ~  PM--|
  |--3--| |--3--|   |3-|  |3-|     |-3-|
  E E Q Q Q Q E E   Q +E  Q +E  Q  E E E
|-----------------|-----------------------|
|-----------------|-----------------------|
|-----------------|-----------------------|
|-5-----------4p2-|-4-(4)S8-(8)S4---------|
|-2-2-2-2-2-2-----|----------------4-4-4--|
|---0-0-0-0-0-----|----------------2-2-2--|
|
|   PM------|       ~     ~     ~  PM--|
| |--3--| |--3--|   |3-|  |3-|     |-3-|
| E E Q Q Q Q E E   Q +E  Q +E  Q  E E E
|-----------------|-----------------------|
|-----------------|-----------------------|
|-----------------|-----------------------|
|-2---------------|-----------------------|
|---2-2-2-2-2-5p4-|-5-(5)S9-(9)S5--4-4-4--|
|---0-0-0-0-0-----|----------------6-6-6--|


    PM------|                   ~        PM------|
  |--3--| |--3--|   |-3-| |-3-|        |--3--| |--3--|
  E E Q Q Q Q E E   E E E E E E H      E E Q Q Q Q E E
|-----------------|------------------|-----------------|
|-----------------|------------------|-----------------|
|-----------------|------------------|-----------------|
|-5-----------4p2-|-4p2---2----------|-5-----------4p2-|
|-2-2-2-2-2-2-----|-----5---4h5p4----|-2-2-2-2-2-2-----|
|---0-0-0-0-0-----|------------------|---0-0-0-0-0-----|
|
|   PM------|                   ~        PM------|
| |--3--| |--3--|   |-3-| |-3-|        |--3--| |--3--|
| E E Q Q Q Q E E   E E E E E E H      E E Q Q Q Q E E
|-----------------|------------------|-----------------|
|-----------------|------------------|-----------------|
|-----------------|------------------|-----------------|
|-2---------------|------------------|-2---------------|
|---2-2-2-2-2-5p4-|-5p4-2-4-1h2p1----|---2-2-2-2-2-----|
|---0-0-0-0-0-----|------------------|---0-0-0-0-0-7p3-|


  |-3-| |-3-| |-3-| |-3-| |-3--|  |-3--| |-3--|  |-3--|
  S S S S S S S S S S S S S  S S  S S  S S  S S  S S  S
|-------------------------------------------------------||
|-------------------------------------------------------||
|-------------------------------------------------------||
|-------------------------------------------------------||
|-------------------------------------------------------||
|-2h3p2h3p2h3p2h3p2h3p2h3S6h=7p6h=7p6h=7p6h=7p6h=7p6h=7-||
|
| |-3-| |-3-| |-3-| |-3-| |-3--|  |-3--| |-3--|  |-3--|
| S S S S S S S S S S S S S  S S  S S  S S  S S  S S  S
|-------------------------------------------------------||
|-------------------------------------------------------||
|-------------------------------------------------------||
|-------------------------------------------------------||
|-------------------------------------------------------||
|-6h7p6h7p6h7p6h7p6h7p6h7S9h10p9h10p9h10p9h10p9h10p9h10-||


   Chorus
    Gtr I
    PM----|
    |-3-| |-3-| |-3--|  |--3--|  |--3--|  |--3--|  |--3--|  |--3--|
    S S S S S S S S  S  S  S  S  S  S  S  S  S  S  S  S  S  S  S  S
||------------------------------------------------------------------|
||o-----------------------------------------------------------------|
||------------------------------------------------------------------|
||----------9-9-9-9-------------------------------------------------|
||o-----------------10-10-10-10--9--9--9--9--9--9--9--9--9--9--9--9-|
||--7-7-7-7---------------------------------------------------------|
|
|   Gtr II
|   PM---------------------------------------------------------------
|   |-3-| |-3-| |-3--|  |--3--|  |--3--|  |--3--|  |--3--|  |--3--|
|   S S S S S S S S  S  S  S  S  S  S  S  S  S  S  S  S  S  S  S  S
||------------------------------------------------------------------|
||o-----------------------------------------------------------------|
||------------------------------------------------------------------|
||------------------------------------------------------------------|
||o-----------------------------------------------------------------|
||--7-7-7-7-7-7-7-7--7--7--7--7-10-10-10-10-10-10-10-10-10-10-10-10-|


  PM-----------------------------------------------------------|
  |-3-| |-3-| |-3--|  |--3--|  |--3--|  |--3--|  |--3--|  |--3--|
  S S S S S S S S  S  S  S  S  S  S  S  S  S  S  S  S  S  S  S  S
|------------------------------------------------------------------|
|------------------------------------------------------------------|
|------------------------------------------------------------------|
|------------------------------------------------------------------|
|-----------------------------------------------------10-10-10-10--|
|-7-7-7-7-7-7-7-7--7--7--7--7-10-10-10-10-10-10-10-10--------------|
|
|-------|
| |-3-| |-3-| |-3--|  |--3--|  |--3--|  |--3--|  |--3--|  |--3--|
| S S S S S S S S  S  S  S  S  S  S  S  S  S  S  S  S  S  S  S  S
|------------------------------------------------------------------|
|------------------------------------------------------------------|
|------------------------------------------------------------------|
|---------9-9-9-9--------------------------------------------------|
|-----------------10-10-10-10--9--9--9--9--9--9--9--9--7--7--7--7--|
|-7-7-7-7----------------------------------------------------------|


   PM---------|
   |---3---|   |---3---|   |---3---|   |---3---| |-3-| |-3-| |-3--|  |--3--|
   S   S   S   S   S   S   S   S   S   S   S   S S S S S S S S S  S  S  S  S
|----------------------------------------------------------------------------|
|----------------------------------------------------------------------------|
|----------------------------------------------------------------------------|
|----------------------------------------------------------------------------|
|--7---7---7---7---7---7---7---7--10--10--10--10-9-9-9-9-9-9-9-9-10-10-10-10-|
|----------------------------------------------------------------------------|
|
|  PM-------------------------------------------------------------------------
|  |---3---|   |---3---|   |---3---|   |---3---| |-3-| |-3-| |-3--|  |--3--|
|  S   S   S   S   S   S   S   S   S   S   S   S S S S S S S S S  S  S  S  S
|----------------------------------------------------------------------------|
|----------------------------------------------------------------------------|
|----------------------------------------------------------------------------|
|----------------------------------------------------------------------------|
|-(1)-(1)-(1)-(1)-(1)-(1)-(1)-(1)-(1)-(1)-(1)-(1)----------------------------|
|--2---2---2---2---2---2---2---2---2---2---2---2S9-9-9-9-9-9-9-9--9--9--9--9-|


  1.
  |-3-| |-3-| |-3-| |-3-| |-3-| |-3-| |-3-| |-3-|
  S S S S S S S S S S S S S S S S S S S S S S S S
|---------------------------------------------------||
|--------------------------------------------------o||
|---------------------------------------------------||
|---------------------------------------------------||
|-9-9-9-9-9-9-9-9-9-9-9-9-9-9-9-9-7-7-7-7----------o||
|-----------------------------------------9-9-9-9---||
|
|---------------------------------------------|
| |-3-| |-3-| |-3-| |-3-| |-3-|   |-3-|   |-3-|
| S S S S S S S S S S S S S S e   S S e   S S e
|---------------------------------------------------||
|--------------------------------------------------o||
|---------------------------------------------------||
|---------------------------------------------------||
|--------------------------------------------------o||
|-7-7-7-7-7-7-7-7-7-7-7-7-7-7-7---7-7-7---6-6-6-----||


  2.
  |-3-| |-3-| |-3-| |-3-|  |--3--|  |--3--|  |--3--|  |--3--|
  S S S S S S S S S S S S  S  S  S  S  S  S  S  S  S  S  S  S
|-------------------------------------------------------------||
|-------------------------------------------------------------||
|-------------------------------------------------------------||
|-8-8-8-8-8-8-8-8-8-8-8-8--8--8--8--8--8--8--8--8--8--8--8--8-||
|-------------------------------------------------------------||
|-------------------------------------------------------------||
|
| PM-------------------------------------------------------|
| |-3-| |-3-| |-3-| |-3-|  |--3--|  |--3--|  |--3--|  |--3--|
| S S S S S S S S S S S S  S  S  S  S  S  S  S  S  S  S  S  S
|-------------------------------------------------------------||
|-------------------------------------------------------------||
|-------------------------------------------------------------||
|-------------------------------------------------------------||
|-------------------------------------------------------------||
|-7-7-7-7-7-7-7-7-7-7-7-7-10-10-10-10-10-10-10-10-10-10-10-10-||


 Guitar Solo I
  Gtrs I, II
   T                T        T       T                T              T
   |--3--| |--3--|  |-3-| |-3--|     |--3---| |-3--|  |---3----|  |-3--|
   E   E E E   E E  E E E E  E E     E  E   E E  E E  E    E   E  E  E E
|--------------------------------|---------------------------------------|
|--------------------------------|---------------------------------------|
|--------------------------------|---------------------------------------|
|--------------------------------|---------------------------------------|
|--------------------------------|---------------------------------------|
|-10p==6p3h6--10p3-15p6p3h6-10p6-|--10p=6p==3h6-10p3-15p===6p==3h=6-10p6-|
|
| Gtr III
|  ~~~~             ~~~~~~~~~~~~~~~~~~~~                       ~~~~
|  |-----3-----|                     |-----3-----|    |------3-------|
|  H           Q    H               +Q      Q    Q    Q       +Q     Q
|--------------------------------|---------------------------------------|
|--------------------------------|---------------------------------------|
|--7b9-------/12p==11------------|-(11)---/16---18---18b19r==(18)---16---|
|--------------------------------|---------------------------------------|
|--------------------------------|---------------------------------------|
|--------------------------------|---------------------------------------|


   T               T                 T                 T
   |-3--| |-3--|   |-3--| |-3--|     |--3--|  |--3--|  |--3--|  |--3--|
   E E  E E  E E   E  E E E  E E     E  E  E  E  E  E  E  E  E  E  E  E
|--------------------------------|---------------------------------------|
|--------------------------------|---------------------------------------|
|--------------------------------|---------------------------------------|
|--------------------------------|---------------------------------------|
|--------------------------------|---------------------------------------|
|-19p7p=6h7-14p7--19p=7p6h7-14p7-|--19p=7p=6h=7-14p=7-19p=7p=6h=7-14p=7--|
|
|       ~~~~~~~~~~~~~~
|  |-3--|                            |--3--|  |--3--|  |--3--|  |--3--|
|  Q    H         +H                 E  E  E  E  E  E  E  E  E  E  E  E
|--------------------------------|-/12h13h14p13p12-----------------------|
|--------------------------------|-----------------15p14p13p12-----------|
|-18S==11--------(11)------------|-----------------------------15p14h15S=|
|--------------------------------|---------------------------------------|
|--------------------------------|---------------------------------------|
|--------------------------------|---------------------------------------|


   T                T            T
   |-3-| |--3---|   |---3---| |--3--|
   E E E E   E  E   E   E   E E  E  E
|-------------------------------------|
|-------------------------------------|
|-------------------------------------|
|-------------------------------------|
|-------------------------------------|
|-10p6p3h6--10p=3--15p==6p==3h6-10p=6-|
|
|  ~~~~~~~~~~~~~
|  |----3----|      |-------3-------|
|  H        +Q     +Q       Q    E  E
|-------------------------------------|
|-------------------------------17----|
|-16-------(16)---(16)\---/16------16-|
|-------------------------------------|
|-------------------------------------|
|-------------------------------------|


    T                   T                 T
    |-3-| |---3----|    |-----3-----|  |---3----|
    E E E E   E    E    E      E    E  E  E     E
|-----------------------------------------------------|
|-----------------------------------------------------|
|-----------------------------------------------------|
|-----------------------------------------------------|
|-----------------------------------------------------|
|--10p6p3h6--10p===3---15p=====6p===3h=6-10p====6-----|
|
|   ~~~~~~~~~~~~~              ~~~~~~~~
|   |------3-------|    |-----3-----|     |---3----|
|   H        +E   +E    E     +E   +Q     S  S  S  S
|-----------------------------------------------------|
|-/19-------(19)-(19)\-19b20-(19)-(19)---20p19p17-----|
|-------------------------------------------------19--|
|-----------------------------------------------------|
|-----------------------------------------------------|
|-----------------------------------------------------|


   T                T                       T              T
   |-3-| |--3---|   |--3---|  |---3---|     |-3--| |-3--|  |--3---| |-3--|
   E E E E   E  E   E  E   E  E   E   E     E E  E E  E E  E    E E E  E E
|---------------------------------------|----------------------------------||
|---------------------------------------|----------------------------------||
|---------------------------------------|----------------------------------||
|---------------------------------------|----------------------------------||
|---------------------------------------|----------------------------------||
|-19p7p6h7--14p=7--19p=7p==6h=7--14p==7-|--19p7p=6h7-14p7-19p===7p6h7-14p7-||
|
|  ~~~~~~~~~~~~~~~~~~~~~~~~~~~                             ~~~~~
|  |----3----|      |------3------|         |----3----|
|  H        +Q     +Q     +Q     +Q         Q    Q    Q    H
|---------------------------------------|-/18---15--------18b21------------||
|-19-------(19)---(19)---(19)---(19)\---|------------17--------------------||
|---------------------------------------|----------------------------------||
|---------------------------------------|----------------------------------||
|---------------------------------------|----------------------------------||
|---------------------------------------|----------------------------------||
|
| Gtr IV
|                                                          ~~~~~
|                                           |----3----|
|  W                                        Q    Q    Q    H
|---------------------------------------|-/14---12--------15b18------------||
|---------------------------------------|------------14--------------------||
|---------------------------------------|----------------------------------||
|---------------------------------------|----------------------------------||
|---------------------------------------|----------------------------------||
|---------------------------------------|----------------------------------||


 Guitar Solo II
  Gtrs I, II
  PM----|         PM               PM--------------------------
  |--3--|    |---3----|   |---3----|    |--3---|    |-3--|
  S S   E    E    E   E   E    E   E    S   S  E    S  S E
|-------------------------------------------------------------|
|-------------------------------------------------------------|
|-------------------------------------------------------------|
|------------2--------5p==2-----------------------------------|
|------------------------------4------------------------------|
|-3-3---3---------3----------------3----3---3--3----3--3-3----|
|
| Gtr III
| S   S    S   S  S S   S    S S S    S   S    S  S    S    S
|----------------------------------------------------------10S|
|------------------------------------------------11h==12------|
|-----------------------------------------9h==12--------------|
|------------------------------8h9---11-----------------------|
|--------------7----7h==9---10--------------------------------|
|-7h==9---10-----10-------------------------------------------|


 ---------|            PM                      PM-----------------------|
   |---3---|     |-----3-----|     |-----3-----|     |---3---|     |--3--|
   S   S   E     E     E     E     E     E     E     S    S  E     S  S  E
|-------------------------------------------------------------------------------|
|-------------------------------------------------------------------------------|
|-------------------------------------------------------------------------------|
|----------------2-----------5p====2--------------------------------------------|
|----------------------------------------4--------------------------------------|
|--3---3---3-----------3-----------------------3-----3----3--3-----3--3--3------|
|
|  |---3---|  |--3--|  |--3--|  |--3--|  |--3--|             |--3--|  |--3--|
|  S  +S   S  S  S  S  S  S  S  S  S  S  S  S  S  T  T  S    S  S  S  S  S  S
|-12-(12)s14-15S18S15-14p12-14S15S14h15-----------------------------------------|
|---------------------------------------17p15-14-15p14h17S==12h14p12------------|
|--------------------------------------------------------------------15p12h15---|
|-------------------------------------------------------------------------------|
|-------------------------------------------------------------------------------|
|-------------------------------------------------------------------------------|


   PM-----|         PM                 PM-------------
   |--3---|    |----3----|    |---3----| |-3-| |-3-|
   S S    E    E    E    E    E      E E S S E S S E
|----------------------------------------------------|
|----------------------------------------------------|
|----------------------------------------------------|
|------------------------4p===0----------------------|
|--------------4---------------------2---------------|
|--2-2----2---------2------------------2-2-2-2-2-2-2-|
|
|                                    ~~~~~~~~~~~~~~~~~
|  |---3----|
|  S    S   S  S  S S  S    S    S   H
|----------------------------------------------------|
|----------------------------------------------------|
|-12p==11p==9-------9--------------------------------|
|-------------11-12---12p==11h==12-------------------|
|----------------------------------/14---------------|
|----------------------------------------------------|
|
| Gtr IV
|  W
|----------------------------------------------------|
|----------------------------------------------------|
|----------------------------------------------------|
|----------------------------------------------------|
|----------------------------------------------------|
|----------------------------------------------------|


 ------|    PM        PM----------|
   |-3-|  |-3--| |-3--| |-3-| |-3-|
   S S E  E E  E E  E E S S E S S E
|-----------------------------------|
|-----------------------------------|
|-----------------------------------|
|--------------4p0------------------|
|---------4---------2---------------|
|--2-2-2----2---------2-2-2-2-2-2-2-|
|
|~~~~~~~~~~~~~~~~~~~~~
|  |-----3-----|
|  Q      Q    Q    H
|-----------------------------------|
|-----------------------------------|
|-----------------------------------|
|-----------------------------------|
|-14-----16---17---16---------------|
|-----------------------------------|
|
|  ~~~~~~~~~~~~~~~~~~~
|  |-----3-----|
|  Q      Q    Q    H
|-----------------------------------|
|-----------------------------------|
|-----------------------------------|
|-12-----14---16---14---------------|
|-----------------------------------|
|-----------------------------------|


   PM------|        PM            PM--------------
   |----3----|  |--3---|   |--3---| |-3--| |-3-|
   S     S   E  E   E  E   E   E  E S  S E S S E
|------------------------------------------------|
|------------------------------------------------|
|------------------------------------------------|
|---------------2------5p==2---------------------|
|------------------------------4-----------------|
|--3-----3---3------3-------------3-3--3-3-3-3-3-|
|
|            ~~~~~~~~~~~~~~~~~~~~~~~~~~~~~~~~~~~~~
|  |-------3--------|      |-----3-----|
|  Q        +Q     +Q     +Q      Q    Q
|------------------------------------------------|
|-17b19====(17)---(17)---(17)rp==15--------------|
|-------------------------------------18---------|
|------------------------------------------------|
|------------------------------------------------|
|------------------------------------------------|


 ------|   PM      PM----------|
   |-3-| |-3-| |-3-| |-3-| |-3-|
   S S E E E E E E E S S E S S E
|---------------------------------|
|---------------------------------|
|---------------------------------|
|--------2---5p2------------------|
|----------------2----------------|
|--3-3-3---3-------3-3-3-3-3-3-3--|
|
|~~~~
|  W
|---------------------------------|
|---------------------------------|
|-16------------------------------|
|---------------------------------|
|---------------------------------|
|---------------------------------|


    PM---|            PM                      PM-------------------------------------
    |--3--|     |-----3-----|     |-----3-----|     |--3--|        |-----3-----|
    S  S  E     E     E     E     E     E     E     S  S  E        S     S     E
|-----------------------------------------------------------------------------------|
|-----------------------------------------------------------------------------------|
|-----------------------------------------------------------------------------------|
|---------------------------4p====0-------------------------------------------------|
|---------------4-----------------------2-------------------------------------------|
|---2--2--2-----------2-----------------------2-----2--2--2--------2-----2-----2----|
|
|   |--3--|  |--3--|  |--3--|  |--3--|  |--3--|  |--3--|  |-----------3-----------|
|   S  S  S  S  S  S  S  S  S  S  S  S  S  S  S  S  S  S  S  T  T  T  T  T  T  S  S
|--------------------------------------------------------------------------------15-|
|--------------------------------------------15----15h17p15----------------15h17----|
|-----------15h16p15----15----------15h16h18----18----------18p16p15h16h18----------|
|-/14h16h17----------17----17p16h17-------------------------------------------------|
|-----------------------------------------------------------------------------------|
|-----------------------------------------------------------------------------------|


 -------|            PM                         PM----------|
   |--3--|     |--------3--------|      |---3---| |-3-| |-3--|
   S  S  E     E     E           E      E     E E S S E S S  E
|--------------------------------------------------------------||
|--------------------------------------------------------------||
|--------------------------------------------------------------||
|--------------------------------4p=====0----------------------||
|--------------4------------------------------1----------------||
|--2--2--2-----------2--------------------------2-2-2-2-2-2--2-||
|
|                                             ~~
|  |--3--|  |--3--|  |-----3-----|   |--3--|
|  S  S  S  S  S  S  T  T  T  T  S   S  S  S  H              a
|-14h15h18p15h18p14h15h18p15h18p15-----------------------------||
|----------------------------------/19p17-------------------17-||
|-----------------------------------------19p18----------------||
|--------------------------------------------------------------||
|--------------------------------------------------------------||
|--------------------------------------------------------------||


   Interlude
    Gtr I
      |--3---|  |--3--|  |--3--|  |--3--|  |--3--|  |--3--|  |--3--|  |--3--|
      S   S  S  S  S  S  S  S  S  S  S  S  S  S  S  S  S  S  S  S  S  S  S  S
||----------------------------------------------------------------------------|
||o---------------------------------------------------------------------------|
||----------------------------------------------------------------------------|
||----------------------------------------------------------------------------|
||o---------------------------------------------------------------------------|
||---12--12-12-12-12-12-12-12-12-12-12-12-12-12-12-12-12-12-12-12-12-12-12-12-|
|
|   Gtr II
|     |--3---|  |--3--|  |--3--|  |--3--|  |--3--|  |--3--|  |--3--|  |--3--|
|     S   S  S  S  S  S  S  S  S  S  S  S  S  S  S  S  S  S  S  S  S  S  S  S
||----------------------------------------------------------------------------|
||o---------------------------------------------------------------------------|
||----------------------------------------------------------------------------|
||----------------------------------------------------------------------------|
||o---------------------------------------------------------------------------|
||----9---9--9--9--9--9--9--9--9--9--9--9--9--9--9--9--9--9--9--9--9--9--9--9-|
|
|   Gtr III
|     >
|     ~~~~
|    +W
||----------------------------------------------------------------------------|
||o-(17)----------------------------------------------------------------------|
||----------------------------------------------------------------------------|
||----------------------------------------------------------------------------|
||o---------------------------------------------------------------------------|
||----------------------------------------------------------------------------|


  |-3-| |-3-| |-3-| |-3-| |-3-| |-3-| |-3-| |-3-|
  S S S S S S S S S S S S S S S S S S S S S S S S
|--------------------------------------------------|
|--------------------------------------------------|
|--------------------------------------------------|
|--------------------------------------------------|
|--------------------------------------------------|
|-9-9-9-9-9-9-9-9-9-9-9-9-9-9-9-9-9-9-9-9-9-9-9-9--|
|
| |-3-| |-3-| |-3-| |-3-| |-3-| |-3-| |-3-| |-3-|
| S S S S S S S S S S S S S S S S S S S S S S S S
|--------------------------------------------------|
|--------------------------------------------------|
|--------------------------------------------------|
|--------------------------------------------------|
|--------------------------------------------------|
|-6-6-6-6-6-6-6-6-6-6-6-6-6-6-6-6-6-6-6-6-6-6-6-6--|
|
| W
|--------------------------------------------------|
|--------------------------------------------------|
|--------------------------------------------------|
|--------------------------------------------------|
|--------------------------------------------------|
|--------------------------------------------------|


   |--3--|  |--3--|  |--3--|  |--3--|  |--3--|  |--3--|  |--3--|  |--3--|
   S  S  S  S  S  S  S  S  S  S  S  S  S  S  S  S  S  S  S  S  S  S  S  S
|-------------------------------------------------------------------------|
|-------------------------------------------------------------------------|
|-------------------------------------------------------------------------|
|-------------------------------------------------------------------------|
|-------------------------------------------------------------------------|
|-10-10-10-10-10-10-10-10-10-10-10-10-10-10-10-10-10-10-10-10-10-10-10-10-|
|
|  |--3--|  |--3--|  |--3--|  |--3--|  |--3--|  |--3--|  |--3--|  |--3--|
|  S  S  S  S  S  S  S  S  S  S  S  S  S  S  S  S  S  S  S  S  S  S  S  S
|-------------------------------------------------------------------------|
|-------------------------------------------------------------------------|
|-------------------------------------------------------------------------|
|-------------------------------------------------------------------------|
|-------------------------------------------------------------------------|
|--7--7--7--7--7--7--7--7--7--7--7--7--7--7--7--7--7--7--7--7--7--7--7--7-|


  |-3-| |-3-| |-3-| |-3-| |-3-| |-3-| |-3-| |-3-|
  S S S S S S S S S S S S S S S S S S S S S S S S
|--------------------------------------------------|
|--------------------------------------------------|
|--------------------------------------------------|
|--------------------------------------------------|
|--------------------------------------------------|
|-9-9-9-9-9-9-9-9-9-9-9-9-7-7-7-7-7-7-7-7-7-7-7-7--|
|
| |-3-| |-3-| |-3-| |-3-| |-3-| |-3-| |-3-| |-3-|
| S S S S S S S S S S S S S S S S S S S S S S S S
|--------------------------------------------------|
|--------------------------------------------------|
|--------------------------------------------------|
|--------------------------------------------------|
|--------------------------------------------------|
|-9-9-9-9-9-9-9-9-9-9-9-9-7-7-7-7-7-7-7-7-7-7-7-7--|


   |--3--|  |--3--|  |--3--|  |--3--|  |--3--|  |--3--|  |--3--|  |--3--|
   S  S  S  S  S  S  S  S  S  S  S  S  S  S  S  S  S  S  S  S  S  S  S  S
|-------------------------------------------------------------------------|
|-------------------------------------------------------------------------|
|-------------------------------------------------------------------------|
|-------------------------------------------------------------------------|
|-------------------------------------------------------------------------|
|-12-12-12-12-12-12-12-12-12-12-12-12-12-12-12-12-12-12-12-12-12-12-12-12-|
|
|  |--3--|  |--3--|  |--3--|  |--3--|  |--3--|  |--3--|  |--3--|  |--3--|
|  S  S  S  S  S  S  S  S  S  S  S  S  S  S  S  S  S  S  S  S  S  S  S  S
|-------------------------------------------------------------------------|
|-------------------------------------------------------------------------|
|-------------------------------------------------------------------------|
|-------------------------------------------------------------------------|
|-------------------------------------------------------------------------|
|--9--9--9--9--9--9--9--9--9--9--9--9--9--9--9--9--9--9--9--9--9--9--9--9-|


  |-3-| |-3-| |-3-| |-3-| |-3-| |-3-| |-3-| |-3-|
  S S S S S S S S S S S S S S S S S S S S S S S S
|--------------------------------------------------|
|--------------------------------------------------|
|--------------------------------------------------|
|--------------------------------------------------|
|--------------------------------------------------|
|-9-9-9-9-9-9-9-9-9-9-9-9-9-9-9-9-9-9-9-9-9-9-9-9--|
|
| |-3-| |-3-| |-3-| |-3-| |-3-| |-3-| |-3-| |-3-|
| S S S S S S S S S S S S S S S S S S S S S S S S
|--------------------------------------------------|
|--------------------------------------------------|
|--------------------------------------------------|
|--------------------------------------------------|
|--------------------------------------------------|
|-6-6-6-6-6-6-6-6-6-6-6-6-6-6-6-6-6-6-6-6-6-6-6-6--|


   |--3--|  |--3--|  |--3--|  |--3--|  |--3--|  |--3--|  |--3--|  |--3--|
   S  S  S  S  S  S  S  S  S  S  S  S  S  S  S  S  S  S  S  S  S  S  S  S
|-------------------------------------------------------------------------|
|-------------------------------------------------------------------------|
|-------------------------------------------------------------------------|
|-------------------------------------------------------------------------|
|-------------------------------------------------------------------------|
|-10-10-10-10-10-10-10-10-10-10-10-10-10-10-10-10-10-10-12-12-12-10-10-10-|
|
|  |--3--|  |--3--|  |--3--|  |--3--|  |--3--|  |--3--|  |--3--|  |--3--|
|  S  S  S  S  S  S  S  S  S  S  S  S  S  S  S  S  S  S  S  S  S  S  S  S
|-------------------------------------------------------------------------|
|-------------------------------------------------------------------------|
|-------------------------------------------------------------------------|
|-------------------------------------------------------------------------|
|-------------------------------------------------------------------------|
|--7--7--7--7--7--7--7--7--7--7--7--7--7--7--7--7--7--7--9--9--9--7--7--7-|


  |-3-| |-3-| |-3-| |-3-| |-3-| |-3-| |-3-| |-3-|
  S S S S S S S S S S S S S S S S S S S S S S S S
|---------------------------------------------------||
|--------------------------------------------------o||
|---------------------------------------------------||
|---------------------------------------------------||
|--------------------------------------------------o||
|-9-9-9-9-9-9-9-9-9-9-9-9-7-7-7-7-7-7-7-7-7-7-7-7---||
|
| |-3-| |-3-| |-3-| |-3-| |-3-| |-3-| |-3-| |-3-|
| S S S S S S S S S S S S S S S S S S S S S S S S
|---------------------------------------------------||
|--------------------------------------------------o||
|---------------------------------------------------||
|---------------------------------------------------||
|--------------------------------------------------o||
|-6-6-6-6-6-6-6-6-6-6-6-6-3-3-3-3-3-3-3-3-3-3-3-3---||


   Bridge
      PM--|       PM--|         PM--|        PM--|
    |-3-| |-3-| |-3-| |-3-|   |-3-| |-3--| |-3-| |-3--|
    E E E E E E E E E E E E   E E E E  E E E E E E  E E
||--------------------------|----------------------------|
||o-------------------------|----------------------------|
||--------------------------|----------------------------|
||--5-----------5-----------|-8------------8-------------|
||o-------------------------|----------------------------|
||----6-3-6-7p6---6-3-6-7p6-|---9-6-9-12p9---9-6-9-12p9--|
|
|     PM--|       PM--|         PM--|        PM--|
|   |-3-| |-3-| |-3-| |-3-|   |-3-| |-3--| |-3-| |-3--|
|   E E E E E E E E E E E E   E E E E  E E E E E E  E E
||--------------------------|----------------------------|
||o-------------------------|----------------------------|
||--------------------------|----------------------------|
||--------------------------|-4------------4-------------|
||o-7-------5---7-------5---|----------4------------4----|
||----3-0-3---3---3-0-3---3-|---6-2-6----6---6-2-6----6--|


                              1.,2.,3.
    PM--|        PM--|           PM--|         PM--|
  |-3-| |-3--| |-3-| |-3--|    |-3-| |-3--|  |-3-| |-3-|
  E E E E  E E E E E E  E E    E E E E  E E  E E E E E E  4x
|---------------------------|-----------------------------||
|---------------------------|----------------------------o||
|-7------------7------------|-----------------------------||
|---------------------------|-11------------11---------8--||
|---5-4-5--9p5---5-4-5--9p5-|------------------------7---o||
|---------------------------|----9-7-9-12p9----9-7-9------||
|
|   PM--|        PM--|           PM--|         PM--|
| |-3-| |-3--| |-3-| |-3--|    |-3-| |-3--|  |-3-| |-3-|
| E E E E  E E E E E E  E E    E E E E  E E  E E E E E E  4x
|---------------------------|-----------------------------||
|---------------------------|----------------------------o||
|---------------------------|-----------------------------||
|-9------------9------------|--8-------------8------------||
|---------------------------|-----------4------------4---o||
|---7-6-7-10p7---7-6-7-10p7-|----6-3-6----6----6-3-6---6--||


  4.
  Gtr I
     PM--|      PM--------------|
   |-3-| |-3--| |-3-| |-3-| |-3-|
   E E E E  E E S S E S S E S S E
|---------------------------------||
|---------------------------------||
|---------------------------------||
|-11------------------------------||
|---------------7-7-7-7-7-7-7-7-7-||
|----9-7-9-12p9-6-6-6-6-6-6-6-6-6-||
|
|    PM--|      PM--------------|
|  |-3-| |-3--| |-3-| |-3-| |-3-|
|  E E E E  E E S S E S S E S S E
|---------------------------------||
|---------------------------------||
|---------------------------------||
|--8------------------------------||
|-----------4---4-4-4-4-4-4-4-4-4-||
|----6-3-6----6-2-2-2-2-2-2-2-2-2-||


 Pre-Chorus
    PM------|             PM|       PM|
  |--3--| |--3--|   |---3---| |---3---|
  E E Q Q Q Q E E   E +E  Q Q E +E  Q Q
|-----------------|---------------------|
|-----------------|---------------------|
|-----------------|---------------------|
|-5-----------4p2-|-4-(4)-----0-(0)-----|
|-2-2-2-2-2-2-----|-1-(1)-2-2-1-(1)-2-2-|
|---0-0-0-0-0-----|-------0-0-------0-0-|
|
|   PM------|             PM|       PM|
| |--3--| |--3--|   |---3---| |---3---|
| E E Q Q Q Q E E   E +E  Q Q E +E  Q Q
|-----------------|---------------------|
|-----------------|---------------------|
|-----------------|---------------------|
|-2---------------|---------------------|
|---2-2-2-2-2-5p4-|-5-(5)-2-2-1-(1)-2-2-|
|---0-0-0-0-0-----|-3-(3)-0-0-2-(2)-0-0-|


    PM------|       ~     ~     ~  PM--|
  |--3--| |--3--|   |3-|  |3-|     |-3-|
  E E Q Q Q Q E E   Q +E  Q +E  Q  E E E
|-----------------|-----------------------|
|-----------------|-----------------------|
|-----------------|-----------------------|
|-5-----------4p2-|-4-(4)S8-(8)S4---------|
|-2-2-2-2-2-2-----|----------------4-4-4--|
|---0-0-0-0-0-----|----------------2-2-2--|
|
|   PM------|       ~     ~     ~  PM--|
| |--3--| |--3--|   |3-|  |3-|     |-3-|
| E E Q Q Q Q E E   Q +E  Q +E  Q  E E E
|-----------------|-----------------------|
|-----------------|-----------------------|
|-----------------|-----------------------|
|-2---------------|-----------------------|
|---2-2-2-2-2-5p4-|-5-(5)S9-(9)S5--4-4-4--|
|---0-0-0-0-0-----|----------------6-6-6--|


    PM------|                   ~        PM------|
  |--3--| |--3--|   |-3-| |-3-|        |--3--| |--3--|
  E E Q Q Q Q E E   E E E E E E H      E E Q Q Q Q E E
|-----------------|------------------|-----------------|
|-----------------|------------------|-----------------|
|-----------------|------------------|-----------------|
|-5-----------4p2-|-4p2---2----------|-5-----------4p2-|
|-2-2-2-2-2-2-----|-----5---4h5p4----|-2-2-2-2-2-2-----|
|---0-0-0-0-0-----|------------------|---0-0-0-0-0-----|
|
|   PM------|                   ~        PM------|
| |--3--| |--3--|   |-3-| |-3-|        |--3--| |--3--|
| E E Q Q Q Q E E   E E E E E E H      E E Q Q Q Q E E
|-----------------|------------------|-----------------|
|-----------------|------------------|-----------------|
|-----------------|------------------|-----------------|
|-2---------------|------------------|-2---------------|
|---2-2-2-2-2-5p4-|-5p4-2-4-1h2p1----|---2-2-2-2-2-----|
|---0-0-0-0-0-----|------------------|---0-0-0-0-0-7p3-|


  |-3-| |-3-| |-3-| |-3-| |-3--|  |-3--| |-3--|  |-3--|
  S S S S S S S S S S S S S  S S  S S  S S  S S  S S  S
|-------------------------------------------------------||
|-------------------------------------------------------||
|-------------------------------------------------------||
|-------------------------------------------------------||
|-------------------------------------------------------||
|-2h3p2h3p2h3p2h3p2h3p2h3S6h=7p6h=7p6h=7p6h=7p6h=7p6h=7-||
|
| |-3-| |-3-| |-3-| |-3-| |-3--|  |-3--| |-3--|  |-3--|
| S S S S S S S S S S S S S  S S  S S  S S  S S  S S  S
|-------------------------------------------------------||
|-------------------------------------------------------||
|-------------------------------------------------------||
|-------------------------------------------------------||
|-------------------------------------------------------||
|-6h7p6h7p6h7p6h7p6h7p6h7S9h10p9h10p9h10p9h10p9h10p9h10-||


   Chorus
    Gtr I
    PM----|
    |-3-| |-3-| |-3--|  |--3--|  |--3--|  |--3--|  |--3--|  |--3--|
    S S S S S S S S  S  S  S  S  S  S  S  S  S  S  S  S  S  S  S  S
||------------------------------------------------------------------|
||o-----------------------------------------------------------------|
||------------------------------------------------------------------|
||----------9-9-9-9-------------------------------------------------|
||o-----------------10-10-10-10--9--9--9--9--9--9--9--9--9--9--9--9-|
||--7-7-7-7---------------------------------------------------------|
|
|   Gtr II
|   PM---------------------------------------------------------------
|   |-3-| |-3-| |-3--|  |--3--|  |--3--|  |--3--|  |--3--|  |--3--|
|   S S S S S S S S  S  S  S  S  S  S  S  S  S  S  S  S  S  S  S  S
||------------------------------------------------------------------|
||o-----------------------------------------------------------------|
||------------------------------------------------------------------|
||------------------------------------------------------------------|
||o-----------------------------------------------------------------|
||--7-7-7-7-7-7-7-7--7--7--7--7-10-10-10-10-10-10-10-10-10-10-10-10-|


  PM-----------------------------------------------------------|
  |-3-| |-3-| |-3--|  |--3--|  |--3--|  |--3--|  |--3--|  |--3--|
  S S S S S S S S  S  S  S  S  S  S  S  S  S  S  S  S  S  S  S  S
|------------------------------------------------------------------|
|------------------------------------------------------------------|
|------------------------------------------------------------------|
|------------------------------------------------------------------|
|-----------------------------------------------------10-10-10-10--|
|-7-7-7-7-7-7-7-7--7--7--7--7-10-10-10-10-10-10-10-10--------------|
|
|-------|
| |-3-| |-3-| |-3--|  |--3--|  |--3--|  |--3--|  |--3--|  |--3--|
| S S S S S S S S  S  S  S  S  S  S  S  S  S  S  S  S  S  S  S  S
|------------------------------------------------------------------|
|------------------------------------------------------------------|
|------------------------------------------------------------------|
|---------9-9-9-9--------------------------------------------------|
|-----------------10-10-10-10--9--9--9--9--9--9--9--9--7--7--7--7--|
|-7-7-7-7----------------------------------------------------------|


   PM---------|
   |---3---|   |---3---|   |---3---|   |---3---| |-3-| |-3-| |-3--|  |--3--|
   S   S   S   S   S   S   S   S   S   S   S   S S S S S S S S S  S  S  S  S
|----------------------------------------------------------------------------|
|----------------------------------------------------------------------------|
|----------------------------------------------------------------------------|
|----------------------------------------------------------------------------|
|--7---7---7---7---7---7---7---7--10--10--10--10-9-9-9-9-9-9-9-9-10-10-10-10-|
|----------------------------------------------------------------------------|
|
|  PM-------------------------------------------------------------------------
|  |---3---|   |---3---|   |---3---|   |---3---| |-3-| |-3-| |-3--|  |--3--|
|  S   S   S   S   S   S   S   S   S   S   S   S S S S S S S S S  S  S  S  S
|----------------------------------------------------------------------------|
|----------------------------------------------------------------------------|
|----------------------------------------------------------------------------|
|----------------------------------------------------------------------------|
|-(1)-(1)-(1)-(1)-(1)-(1)-(1)-(1)-(1)-(1)-(1)-(1)----------------------------|
|--2---2---2---2---2---2---2---2---2---2---2---2S9-9-9-9-9-9-9-9--9--9--9--9-|


  1.
  |-3-| |-3-| |-3-| |-3-| |-3-| |-3-| |-3-| |-3-|
  S S S S S S S S S S S S S S S S S S S S S S S S
|---------------------------------------------------||
|--------------------------------------------------o||
|---------------------------------------------------||
|---------------------------------------------------||
|-9-9-9-9-9-9-9-9-9-9-9-9-9-9-9-9-7-7-7-7----------o||
|-----------------------------------------9-9-9-9---||
|
|---------------------------------------------|
| |-3-| |-3-| |-3-| |-3-| |-3-|   |-3-|   |-3-|
| S S S S S S S S S S S S S S e   S S e   S S e
|---------------------------------------------------||
|--------------------------------------------------o||
|---------------------------------------------------||
|---------------------------------------------------||
|--------------------------------------------------o||
|-7-7-7-7-7-7-7-7-7-7-7-7-7-7-7---7-7-7---6-6-6-----||


  2.
  |-3-| |-3-| |-3-| |-3-|  |--3--|  |--3--|  |--3--|  |--3--|
  S S S S S S S S S S S S  S  S  S  S  S  S  S  S  S  S  S  S
|-------------------------------------------------------------||
|-------------------------------------------------------------||
|-------------------------------------------------------------||
|-8-8-8-8-8-8-8-8-8-8-8-8--8--8--8--8--8--8--8--8--8--8--8--8-||
|-------------------------------------------------------------||
|-------------------------------------------------------------||
|
| PM-------------------------------------------------------|
| |-3-| |-3-| |-3-| |-3-|  |--3--|  |--3--|  |--3--|  |--3--|
| S S S S S S S S S S S S  S  S  S  S  S  S  S  S  S  S  S  S
|-------------------------------------------------------------||
|-------------------------------------------------------------||
|-------------------------------------------------------------||
|-------------------------------------------------------------||
|-------------------------------------------------------------||
|-7-7-7-7-7-7-7-7-7-7-7-7-10-10-10-10-10-10-10-10-10-10-10-10-||


   Outro Chorus
    Gtr I
    PM----|
    |-3-| |-3-| |-3--|  |--3--|  |--3--|  |--3--|  |--3--|  |--3--|
    S S S S S S S S  S  S  S  S  S  S  S  S  S  S  S  S  S  S  S  S
||------------------------------------------------------------------|
||o-----------------------------------------------------------------|
||------------------------------------------------------------------|
||----------9-9-9-9-------------------------------------------------|
||o-----------------10-10-10-10--9--9--9--9--9--9--9--9--9--9--9--9-|
||--7-7-7-7---------------------------------------------------------|
|
|   Gtr II
|   PM---------------------------------------------------------------
|   |-3-| |-3-| |-3--|  |--3--|  |--3--|  |--3--|  |--3--|  |--3--|
|   S S S S S S S S  S  S  S  S  S  S  S  S  S  S  S  S  S  S  S  S
||------------------------------------------------------------------|
||o-----------------------------------------------------------------|
||------------------------------------------------------------------|
||------------------------------------------------------------------|
||o-----------------------------------------------------------------|
||--7-7-7-7-7-7-7-7--7--7--7--7-10-10-10-10-10-10-10-10-10-10-10-10-|


  PM-----------------------------------------------------------|
  |-3-| |-3-| |-3--|  |--3--|  |--3--|  |--3--|  |--3--|  |--3--|
  S S S S S S S S  S  S  S  S  S  S  S  S  S  S  S  S  S  S  S  S
|------------------------------------------------------------------|
|------------------------------------------------------------------|
|------------------------------------------------------------------|
|------------------------------------------------------------------|
|-----------------------------------------------------10-10-10-10--|
|-7-7-7-7-7-7-7-7--7--7--7--7-10-10-10-10-10-10-10-10--------------|
|
|-------|
| |-3-| |-3-| |-3--|  |--3--|  |--3--|  |--3--|  |--3--|  |--3--|
| S S S S S S S S  S  S  S  S  S  S  S  S  S  S  S  S  S  S  S  S
|------------------------------------------------------------------|
|------------------------------------------------------------------|
|------------------------------------------------------------------|
|---------9-9-9-9--------------------------------------------------|
|-----------------10-10-10-10--9--9--9--9--9--9--9--9--7--7--7--7--|
|-7-7-7-7----------------------------------------------------------|


   PM---------|
   |---3---|   |---3---|   |---3---|   |---3---| |-3-| |-3-| |-3--|  |--3--|
   S   S   S   S   S   S   S   S   S   S   S   S S S S S S S S S  S  S  S  S
|----------------------------------------------------------------------------|
|----------------------------------------------------------------------------|
|----------------------------------------------------------------------------|
|----------------------------------------------------------------------------|
|--7---7---7---7---7---7---7---7--10--10--10--10-9-9-9-9-9-9-9-9-10-10-10-10-|
|----------------------------------------------------------------------------|
|
|  PM-------------------------------------------------------------------------
|  |---3---|   |---3---|   |---3---|   |---3---| |-3-| |-3-| |-3--|  |--3--|
|  S   S   S   S   S   S   S   S   S   S   S   S S S S S S S S S  S  S  S  S
|----------------------------------------------------------------------------|
|----------------------------------------------------------------------------|
|----------------------------------------------------------------------------|
|----------------------------------------------------------------------------|
|-(1)-(1)-(1)-(1)-(1)-(1)-(1)-(1)-(1)-(1)-(1)-(1)----------------------------|
|--2---2---2---2---2---2---2---2---2---2---2---2S9-9-9-9-9-9-9-9--9--9--9--9-|


  1.
  |-3-| |-3-| |-3-| |-3-| |-3-| |-3-| |-3-| |-3-|
  S S S S S S S S S S S S S S S S S S S S S S S S
|---------------------------------------------------||
|--------------------------------------------------o||
|---------------------------------------------------||
|---------------------------------------------------||
|-9-9-9-9-9-9-9-9-9-9-9-9-9-9-9-9-7-7-7-7----------o||
|-----------------------------------------9-9-9-9---||
|
|---------------------------------------------|
| |-3-| |-3-| |-3-| |-3-| |-3-|   |-3-|   |-3-|
| S S S S S S S S S S S S S S e   S S e   S S e
|---------------------------------------------------||
|--------------------------------------------------o||
|---------------------------------------------------||
|---------------------------------------------------||
|--------------------------------------------------o||
|-7-7-7-7-7-7-7-7-7-7-7-7-7-7-7---7-7-7---6-6-6-----||


  2.
  |-3-| |-3-| |-3-| |-3-|  |--3--|  |--3--|  |--3--|  |--3--|
  S S S S S S S S S S S S  S  S  S  S  S  S  S  S  S  S  S  S
|-------------------------------------------------------------||
|-------------------------------------------------------------||
|-------------------------------------------------------------||
|-8-8-8-8-8-8-8-8-8-8-8-8--8--8--8--8--8--8--8--8--8--8--8--8-||
|-------------------------------------------------------------||
|-------------------------------------------------------------||
|
| PM-------------------------------------------------------|
| |-3-| |-3-| |-3-| |-3-|  |--3--|  |--3--|  |--3--|  |--3--|
| S S S S S S S S S S S S  S  S  S  S  S  S  S  S  S  S  S  S
|-------------------------------------------------------------||
|-------------------------------------------------------------||
|-------------------------------------------------------------||
|-------------------------------------------------------------||
|-------------------------------------------------------------||
|-7-7-7-7-7-7-7-7-7-7-7-7-10-10-10-10-10-10-10-10-10-10-10-10-||


 Outro
           PM----|          PM--|
  |-3--| |3| |-3-|   |-3--| |-3-|
  Q  Q Q Q E E E E   Q  Q Q Q Q Q   Q  H.
|------------------|--------------|----------||
|------------------|--------------|----------||
|------------------|--------------|-4--------||
|-9-\5-5-4---------|-9-\8S9-------|-4--------||
|-x--x-x-x-4-4-4-4-|-x--x-x-2-4-1-|-2--------||
|-7-\3-3-2-2-2-2-2-|-7-\6S7-2-2-2-|----------||
|
|          PM----|
| |-3--| |3| |-3-|   |-3--| |-3-|
| Q  Q Q Q E E E E   Q  Q Q Q Q Q   Q  H.
|------------------|--------------|----------||
|------------------|--------------|----------||
|------------------|--------7-6-3-|-4--------||
|-5--5-5-4---------|-5-\4S5-x-x-x-|-4--------||
|-x--x-x-x-4-4-4-4-|-x--x-x-5-4-1-|-2--------||
|-3--3-3-2-2-2-2-2-|-3-\2S3-------|----------||



Duration Legend
---------------
W - whole; H - half; Q - quarter; E - 8th; S - 16th; T - 32nd; X - 64th; a - acciaccatura
+ - note tied to previous; . - note dotted; .. - note double dotted
Uncapitalized letters represent notes that are staccato (1/2 duration)
Irregular groupings are notated above the duration line
Duration letters will always appear directly above the note/fret number it represents the
duration for.  Duration letters with no fret number below them represent rests.  Multi-
bar rests are notated in the form Wxn, where n is the number of bars to rest for.  Low
melody durations appear below the staff

Tablature Legend
----------------
 h   - hammer-on
 p   - pull-off
 b   - bend
 pb  - pre-bend
 r   - bend release (if no number after the r, then release immediately)
 /\  - slide into or out of (from/to "nowhere")
 s   - legato slide
 S   - shift slide
 - natural harmonic
[n]  - artificial harmonic
n(n) - tapped harmonic
 ~   - vibrato
 tr  - trill
 T   - tap
 TP  - trem. picking
 PM  - palm muting
\n/  - tremolo bar dip; n = amount to dip
 \n  - tremolo bar down
 n/  - tremolo bar up
/n\  - tremolo bar inverted dip
 =   - hold bend; also acts as connecting device for hammers/pulls
 <> - volume swell (louder/softer)
 x   - on rhythm slash represents muted slash
 o   - on rhythm slash represents single note slash

Misc Legend
-----------
 |  - bar
||  - double bar
||o - repeat start
o|| - repeat end
*|  - double bar (ending)
 :  - bar (freetime)
 $  - Segno
 &  - Coda
Tempo markers -  = BPM(8/16=s8/s16), where s8 = swing 8ths, s16 = swing 16ths
Tap to rate this tab
# A B C D E F G H I J K L M N O P Q R S T U V W X Y Z