Black Dahlia Murder - Nocturnal tab

Song: Nocturnal
Band: The Black Dahlia Murder
Album: Nocturnal [2007]
Tabbed by: Nor'easterbass

Tuning: Standard C (C-F-A#-D#-G-C)

 Key
 ________________________
|h = hammer-on           |
|p = pull-off            |
|pm* = palm mute         |
|" = tremolo picked      |
|~ = let note/chord ring |
|/x = slide into note    |
|________________________|



Riff 1
  (gtr.I)
||----------------------------------------------------|
||----------------------------------------------------|
||----------------------------------------------------|
||----------------------------------------------------|
||-7-----7----------7-----7----------7-----7----------|
||-5-000-5-000-1"---5-000-5-000-4"---5-000-5-000-1"---|
 pm  ***   ***        ***   ***        ***   ***

  (gtr.II)
||----------------------------------------------------|
||----------------------------------------------------|
||----------------------------------------------------|
||-------------7"---------------6"---------------7"---|
||-7-----7----------7-----7----------7-----7----------|
||-5-000-5-000------5-000-5-000------5-000-5-000------|
 pm  ***   ***        ***   ***        ***   ***


(gtr.I)
|---------------------------|
|---------------------------|
|---------------------------|
|-------------2h3p2-------3-|
|-7-----7-----------5-4h5---|
|-5-000-5-000---------------|
pm  ***   ***

(gtr.II)
|---------------------------|
|---------------------------|
|---------------------------|
|-------------6h7p6-------6-|
|-7-----7-----------8-7h8---|
|-5-000-5-000---------------|
pm  ***   ***


Riff 2 (Verses)
(gtr.I)
|-----------------------------------------------------------------|
|-----------------------------------------------------------------|
|-----------------------------------------------------------------|
|-7"------10"------7"------10"--9"------10"------9"---10"-6"---9"-|
|------7"-------7"------7"----------------------------------------|
|-----------------------------------------------------------------|

(gtr.II)
|---------------------------------------------------------------------|
|---------------------------------------------------------------------|
|---------------------------------------------------------------------|
|---------2"---------------2"--2"3"-3"-----3"-----3"---------------3"-|
|-3"-0"------0"----3"-0"-----0"----------------------------------2"---|
|-------------------------------------1"-----1"-----1"---4"-1"4"------|


(gtr.I)
|------------------------------------------------------------------|
|------------------------------------------------------------------|
|------------------------------------------------------------------|
|-7"------10"-----/14"-----/12"-10"-9"---10"------9"---10"-6"---9"-|
|------7"-------7"-------7"----------------------------------------|
|------------------------------------------------------------------|

(gtr.II)
|---------------------------------------------------------------------|
|---------------------------------------------------------------------|
|---------------------------------------------------------------------|
|---------2"---------------2"--2"3"-3"-----3"-----3"---------------3"-|
|-3"-0"------0"----3"-0"-----0"----------------------------------2"---|
|-------------------------------------1"-----1"-----1"---4"-1"4"------|


Riff 3 (Pre-chorus)
(gtr.I)
|-------------------------------------------------|
|-------------------------------------------------|
|-------------------------------------------------|
|-------------------------------------------7-7-7-|
|-7-----7-----7-----5-----8-----8-----8-----------|
|---000---000---000---000---000---000---000-------|
pm  ***   ***   ***   ***   ***   ***   ***

(gtr.II)
|-------------------------------------------------|
|-------------------------------------------------|
|-------------------------------------------------|
|-------------------------------------------------|
|-7-----7-----7-----5-----5-----5-----5-----8-8-8-|
|---000---000---000---000---000---000---000-------|


(gtr.I)
|--------------------------------------------------|
|--------------------------------------------------|
|--------------------------------------------------|
|-6-----6-----6-----6-----7-----7-----7---------10-|
|-------------------------------------------7-8----|
|---777---777---777---777---888---888---888--------|
pm  ***   ***   ***   ***   ***   ***   *** * *

(gtr.II)
|--------------------------------------------------|
|--------------------------------------------------|
|--------------------------------------------------|
|-9-----9-----9-----9-----10----10----10-----------|
|-----------------------------------------------7--|
|---777---777---777---777---888---888---888-7-8----|
pm  ***   ***   ***   ***   ***   ***   *** * *


(gtr.I)
|--------------------------------------------------|
|--------------------------------------------------|
|--------------------------------------------------|
|-9-----7-----6-----7-----9-----10-----3h6-----7-6-|
|------------------------------------------7-5-----|
|---000---000---000---000---000----000-------------|
pm  ***   ***   ***   ***   ***    ***     * *

(gtr.II)
|--------------------------------------------------|
|--------------------------------------------------|
|--------------------------------------------------|
|-6-----------------------6-----7------------------|
|-------8-----7-----8------------------5h7-----8-7-|
|---000---000---000---000---000----000-----8-7-----|
pm  ***   ***   ***   ***   ***    ***     * *



Riff 4a (Chorus)
(gtr.I)
|---------------------------------------------------|
|---------------------------------------------------|
|---------------------------------------------------|
|-------7"----------7"-----------7"-----------------|
|-7-777-------7-777--------6-666--------7-777-------|
|-5-555-------5-555--------4-444--------5-555-7-8-4-|
pm* ***       * ***        * ***        * *** * * *

(gtr.II)
|---------------------------------------------------|
|---------------------------------------------------|
|-------------------5"------------------------------|
|-------7"-----------------------7"-----------------|
|-7-777-------7-777--------6-666--------7-777-------|
|-5-555-------5-555--------4-444--------5-555-7-8-4-|
pm* ***       * ***        * ***        * *** * * *



~Riff 2~


~Riff 3~


~Riff 4a~



Riff 4b
(gtr.I)
|---------------------------------------------------|
|---------------------------------------------------|
|---------------------------------------------------|
|-------3"-----------3"-----------------2h3p2-0-----|
|-3-333--------3-333----------------------------2---|
|-1-111--------1-111--------0-000-1-111-----------4-|
pm* ***        * ***        * *** * ***

(gtr.II)
|---------------------------------------------------|
|---------------------------------------------------|
|--------------------2"-----------------------------|
|-------3"------------------------------6h7p6-------|
|-3-333--------3-333--------------------------8-5---|
|-1-111--------1-111--------0-000-1-111-----------7-|
pm* ***        * ***        * *** * ***



~Riff 1~



Interlude (both guitars)
|----------------------------------------------|
|----------------------------------------------|
|(5)-~--~-------------(7)-~--~-----------------|
|-7--~--~--7br---6br---8--~--~-----------------|
|-7--~--~------7-----5-8--~--~--/5-5~~--/5-5---|
|-5--~--~--------------6--~--~--------0------6-|
pm                                    *

|-------------------------------------------|
|-------------------------------------------|
|(5)-~--~-------------(1)-~--~--------------|
|-7--~--~--------------3--~--~--2-2---2-2-3-|
|-7--~--~--2br-------5-3--~--~--2-2---2-2-3-|
|-5--~--~------4-5br---1--~--~------0-------|
pm                                  *

|----------------------------------------------|
|----------------------------------------------|
|(5)-~--~-------------(7)-~--~-----------------|
|-7--~--~--7br---6br---8--~--~-----------------|
|-7--~--~------7-----5-8--~--~--/5-4~~---------|
|-5--~--~--------------6--~--~--------0-/6-5-6-|
pm                                    *

|---------------------------------------------------|
|---------------------------------------------------|
|(5)-~--~--~------(1)-~--~--------------------------|
|-7--~--~--~-------3--~--~--2-----------------------|
|-7--~--~--~-------3--~--~--2-222-2-2-2-2-222-2-2-2-|
|-5--~--~--~--5br--1--~--~--0-000-0-0-0-0-000-0-0-0-|
pm                          * *** * * * * *** * * *



Riff 5 (Solo backing)
(both guitars)
|-------------------------------------------------|
|-------------------------------------------------|
|-----------------------2-------------------------|
|-2-----2-----2-----2p0---------3---2-------------|
|---0-0---0-0---0-0-------1-1-1---1---5-----5-----|
|---------------------------------------3-3---3-3-|
pm  * *   * *   * *       * * *   *     * *   * *



Riff 6 (95% sure about this...)
(both guitars)
|-------------------------------------------------|
|-------------------------------------------------|
|-------------------------------------------------|
|-7p4---------7p4---------7p4---------------------|
|-----5-----------5-----------5-------------------|
|-------7h8-4-------7h8-4-------7h8p4-5-4-5-7h8p7-|
pm                                    * * *

|-------------------------------------------------|
|-------------------------------------------------|
|-------------------------------------------------|
|-7p4---------7p4---------7p4-----------------9---|
|-----5-----------5-----------5-------666-666-9---|
|-------7h8-4-------7h8-4-------7h8p4-444-444-7---|
pm                                    *** ***


(gtr.I)
|-------------------------------------------------|
|-------------------------------------------------|
|-------------------------------------------------|
|-7p4---------7p4---------7p4---------------------|
|-----5-----------5-----------5-------------------|
|-------7h8-4-------7h8-4-------7h8p4-5-4-5-7h8p7-|
pm                                    * * *

(gtr.II)
|--------------------------------------------------|
|--------------------------------------------------|
|--------------------------------------------------|
|10p7---------10p7---------10p7--------------------|
|----8----7-------8----7-------8---7---------5h7p5-|
|------10---7-------10---7-------10--7-8-7-8-------|
pm                                     * * *


(gtr.I)
|-------------------------------------------------|
|-------------------------------------------------|
|-------------------------------------------------|
|-7p4---------7p4---------7p4-------------------6-|
|-----5-----------5-----------5-----------5h7h8---|
|-------7h8-4-------7h8-4-------7h8-5-7h8---------|                                    

(gtr.II)
|--------------------------------------------------|
|--------------------------------------------------|
|--------------------------------------------------|
|10p7---------10p7---------10p7--------------6h7h9-|
|----8----7-------8----7-------8---7---5h7h8-------|
|------10---7-------10---7-------10--8-------------|
                                     


~Riff 4a~


~Riff 4b~


~Riff 1~


End on
|---------------------||
|---------------------||
|(5)--~---~---~---~---||
|-7---~---~---~---~---||
|-7---~---~---~---~---||
|-5---~---~---~---~---||


Rate/Comment/Shred
Tap to rate this tab
 
# A B C D E F G H I J K L M N O P Q R S T U V W X Y Z