Black Dahlia Murder - Necropolis tab

                           THE BLACK DAHLIA MURDER

                                 NECROPOLIS


i pretty much learned this by EAR so its not complete....BUT it will help y'all get 
started. its in Drop C so there is no flat tuning for the two middle strings like all the 
other Necropolis tabs are for some weird reason.

|---------------------------------------------------------------------------|
|---------------------------------------------------------------------------|
|--------------------15-17-17h18-17-15-17-----------------------------------|
|---12~-15-14~----14----------------------14~-------------------------------|
|---------------------------------------------------------------------------|
|---------------------------------------------------------------------------|

|---------------------------------------------------------------------------|
|---12h13h14p13p12h--12h----------------------------------------------------|
|------------------16---16p15p14p13h14h15~----------------------------------|
|---------------------------------------------------------------------------|
|---------------------------------------------------------------------------|
|---------------------------------------------------------------------------|

|----------------------------------------------17^~-------------------------|
|------16----18~-18h19~-19p18p16h18~--19-16---------------------------------|
|---15----15--------------------------------15------------------------------|
|---------------------------------------------------------------------------|
|---------------------------------------------------------------------------|
|---------------------------------------------------------------------------|

|---------------------------------------------------------------------------|
|---------------------------------------------------------------------------|
|-Some awesome tabbing solo-------------------------------------------------|
|---------------------------------------------------------------------------|
|---------------------------------------------------------------------------|
|---------------------------------------------------------------------------|
Tap to rate this tab
 
# A B C D E F G H I J K L M N O P Q R S T U V W X Y Z