Song name
# A B C D E F G H I J K L M N O P Q R S T U V W X Y Z

Black Dahlia Murder - All My Best Friends Are Bullets tab

                     ALL MY BEST FRIENDS ARE BULLETS
                          The Black Dahlia Murder
       (From The 2001 Album What A Horrible Night To Have A Curse Demo)


Transcribed by Jonathan Casper (confinedforever)

Acoustic Guitar tuned down 2 steps

Gtr 1 - Tuning - (C F Bb Eb G C)




Riff 1      pt a        pt b
	|---------| |---------|
	|---------| |---------|
	|-----0---| |-----0---|
	|---6---6-| |---6---6-|
	|-4-------| |-7-------|
	|---------| |---------|

Riff 2     pt a         pt b        pt c         pt d
	|---------| |---------| |----------| |---------|
	|---------| |---------| |----------| |---------|
	|-----0---| |-----0---| |------0---| |-----0---|
	|---7---7-| |---7---7-| |----8---8-| |---7---7-|
	|-5-------| |-8-------| |-10-------| |-7-------|
	|---------| |---------| |----------| |---------|


	Song Order:
		Riff 1 (pt-a x3, pt-bx3, pt-a x3, pt-b x3)
		Riff 2 (pt-a x2, pt-b x2, pt-c x2, pt-d x2)

Tap to rate this tab
# A B C D E F G H I J K L M N O P Q R S T U V W X Y Z