Song name
# A B C D E F G H I J K L M N O P Q R S T U V W X Y Z

Black Dahlia Murder - What A Horrible Night To Have A Curse tab

I swear to god this is right
play it fast on the outro bit or it will sound like shit
listen to it carefully it tries to trick you on the first part
80% credit to "lord of dead" just fixing some things up

C |--9-------------------------9---------------------------|
G |----9-10-9-10-9-10-9-7--------9-10-9-10-9-10-9-7--------|
D#|--------------------------------------------------------|
A#|--------------------------------------------------------|
F |--------------------------------------------------------|
C |--------------------------------------------------------|


C |-----------------------------------------------------|
G |--5-6-5-----5-6-5----6/8----6------------------------|
D#|-----------------------------------------------------|
A#|-----------------------------------------------------|
F |-----------------------------------------------------|
C |-----------------------------------------------------|


C |--9------------------------------7-9-10-9-7--7----------|
G |----9-10-9-10-9-10-9-7----7-9-10-----------10---10-9----|
D#|--------------------------------------------------------|
A#|--------------------------------------------------------|
F |--------------------------------------------------------|
C |--------------------------------------------------------|



C |---------7h8h10-10p8p7---------------7h8h10-10p8p7---|
G |--7h8h10---------------10p8p7-7h8h10-----------------|
D#|-----------------------------------------------------|
A#|-----------------------------------------------------|
F |-----------------------------------------------------|
C |-----------------------------------------------------|

C |----------9h10h12-12p10p9-----------------9h10h12-12p10p9-|
G |--9h10h12-----------------12p10p9-9h10h12-----------------|
D#|----------------------------------------------------------|
A#|----------------------------------------------------------|
F |----------------------------------------------------------|
C |----------------------------------------------------------|

C |-------8-9-8---------8-9-8---------8-9-8-9-11-9-8-9-8-----|
G |-----9-------9-----9-------9-----9--------------------9---|
D#|--10------------10------------10--------------------------|
A#|----------------------------------------------------------|
F |----------------------------------------------------------|
C |----------------------------------------------------------|

C |------8-9-8--------8-9-8--------8-9-8-9-11-9-8-9-8-------|
G |----9-------9----9-------9----9--------------------9-----|
D#|--9------------9------------9----------------------------|
A#|---------------------------------------------------------|
F |---------------------------------------------------------|
C |---------------------------------------------------------|

C |-------8-9-8---------8-9-8---------8-9-8-9-11-9-8-9-8-----|
G |-----9-------9-----9-------9-----9--------------------9---|
D#|--10------------10------------10--------------------------|
A#|----------------------------------------------------------|
F |----------------------------------------------------------|
C |----------------------------------------------------------|

C |--10p8p7---------------------------------------------------------------------|
G |--------10-8-10-8-10-10p8p7--------------------------------------------------|
D#|---------------------------8-10-8-10-8-10p8p7--------------------------------|
A#|---------------------------------------------8-10-8-10-8-10p8p7--------------|
F |---------------------------------------------------------------10-8-10-8-10--|
C |---------------------------------------------------------------------------8~|




Tap to rate this tab
# A B C D E F G H I J K L M N O P Q R S T U V W X Y Z