Song name
# A B C D E F G H I J K L M N O P Q R S T U V W X Y Z

Black Dahlia Murder - I Worship Only What You Bleed tab

i only figured out about 40 seconds of this
its not 100% percent accurate i know plus its only 1 guitar but hey
i havnt seen you do it!

so here you go

    Gtr I
    PM----|   PM--|      PM   PM  PM  PM  PM------|   PM--|     PM  PM  PM
    E E E E E E E E    E E  E E E E E E E E   E E E E E E E E   E E E E E E E
||------------------|-----------------------|-----------------|---------------||
||o-----------------|-----------------------|-----------------|--------------o||
||------------------|-----------------------|-----------------|---------------||
||------------------|-----------------------|-----------------|---------------||
||o---------3-------|-10---10---7---9---9---|-------4-------7-|---7---3---4--o||
||--3-6-3-6---6-3-6-|----0----0---0---0---0-|-7-4-7---7-4-7---|-0---0---0---0-||


  PM----|   PM--|      PM   PM  PM  PM    PM----|   PM----------|
  E E E E E E E E    E E  E E E E E E   E E E E E E E E   E Q Q Q Q Q..
|-----------------|-------------------|-----------------|-----------------|
|-----------------|-------------------|-----------------|-----------------|
|-----------------|-------------------|-----------------|-----------------|
|-----------------|-------------------|-----------------|---8-6-7-5-0-----|
|---------3-------|-10---10---7---9---|-9---------4-----|---8-6-7-5-0-----|
|-3-6-3-6---6-3-6-|----0----0---0---0-|---0-7-4-7---7-4-|-7-6-4-5-3-0-----|


     E E E E E E E E  E E E E E E E E E E E E E E E E E E E E E E E E  4x
||---------------------------------------------------------------------||--|
||o-------------------------------------------------------------------o||--|
||---------------------------------------------------------------------||--|
||---------------------------------------------------------------------||--|
||o-10-------9-------10-------9-------7-------9-------7-------9-------o||--|
||-----0-0-0---0-0-0----0-0-0---0-0-0---0-0-0---0-0-0---0-0-0---0-0-0--||--|

Tap to rate this tab
# A B C D E F G H I J K L M N O P Q R S T U V W X Y Z