Song name
# A B C D E F G H I J K L M N O P Q R S T U V W X Y Z

Black Death - Rapturous Weeks tab

--12---14-------------------------------------------------------------------|
-----------12---13----------------------------------------------------------|
----------------------------------------------------------------------------|
----------------------------------------------------------------------------|
----------------------------------------------------------------------------|
------------------------0--0h1---0-0-0-0-0-0-0-0-0-0--x7--------------------|

do the begining riff on the second and third strings while guitar 1 is doing the 0h1
Guitar 2 does a pick slide and then guitar 1 goes
----------------------------------------------------------------------------|
----------------------------------------------------------------------------|
----------------------------------------------------------------------------|
----------------------------------------------------------------------------|
----------------------------------------------------------------------------|
---x-x-x--3--x-x-x---2-0-2--x2---0-0-0--2--0-0-0--2-0-2---------------------|
Tap to rate this tab
# A B C D E F G H I J K L M N O P Q R S T U V W X Y Z