Song name
# A B C D E F G H I J K L M N O P Q R S T U V W X Y Z

Black Dust - Sorrow Of The Dark tab

This is a tab for the intro of the song: Sorrow of the dark. GUYS DO NOT COPY! tunning: 
tough if you want to make it sound a bit better turn it a quarter down.1/4. one fourth ok?

You are suppost to play this part clean with no destortion okay.

|-----7---7--5--3--5--2-2-2---------------------------|
|--5----5-----------------------3---------------------|
|-----------------------------------------------------|       x3
|-----------------------------------------------------|
|-----------------------------------------------------|
|-----------------------------------------------------|

At the 4 part of the little solo thingy, you are acctually suppost to do this, once. and 
is the intro.

|-----7---7--5--3--5--2-2-2---------------------------|
|--5----5-----------------------3---------------------|
|-----------------------------------------------------|       x1
|-----------------------------------------------------|
|-----------------------------------------------------|
|-----------------------------------------------------|

That is the tab for the intro of MY song called Sorrow of the dark, by  Blackdust. 
this tab was made on October sunday 18th 2009. GOOD LUCK! :)
Tap to rate this tab
# A B C D E F G H I J K L M N O P Q R S T U V W X Y Z