Song name
# A B C D E F G H I J K L M N O P Q R S T U V W X Y Z

Black Dust - Entering Horizon tab

Band: Blackdust
Song: Entering horizon
This song is played on standard tunning.
this is the intro and a bit more.

|-----------------------------------------------------|
|-----------------------------------------------------|
|-----------------------------------------------------|       
|-----------------------------------------------------|
|--2223-3--55557-77--2223-3-3-5555--7-7---------------|Let both strings ring
|--0000-0--00000-00--000- 0-0-00000 0-0---------------|

|-----------------------------------------------------|
|-----------------------------------------------------|
|-----------------------------------------------------|       
|-----------------------------------------------------|
|--2223-3--55557-77--2223-3-3-5555--7-7---------------|Let both strings ring
|--0000-0--00000-00--000- 0-0-00000 0-0---------------|


|-----------------------------------------------------|
|-----------------------------------------------------|
|-----------------------------------------------------|   x2       
|--2223-3--55557-77--2223-3-3-5555--7-7---------------|
|--0000-0--00000-00--000- 0-0-00000 0-0---------------|
|-----------------------------------------------------|

|-----------------------------------------------------|
|-----------------------------------------------------|
|-----------------------------------------------------|   x4    
|-----------------------------------------------------|
|--55---------------77--------------------------------|
|--55-000000000000--77-000000000000000----------------|

|-----------------------------------------------------|
|-----------------------------------------------------|
|-----------------------------------------------------|   
|-----------------------------------------------------|
|--22-2-2-5-33-3-3--4---------------------------------|
|--00-0-0-0-00-0-0--0---------------------------------|

x4 the chords above but make sure on the last time you do this then add the 4!
0!
well that is it! that is not the  whole song xd
Tap to rate this tab
# A B C D E F G H I J K L M N O P Q R S T U V W X Y Z