Song name
# A B C D E F G H I J K L M N O P Q R S T U V W X Y Z

Black Eyed Peas - Lets Get It Started tab

Help us improve GuitareTab! Take a short survey!
E|--------------------------------------------------------------------|
B|--------------------------------------------------------------------|
G|--------------------------------------------------------------------|
D|--------------------------------------------------------------------|
A|--0--0--0--0----0--2--0--2----2----0--2--0--2----2----0--2--0--2----|
E|--------------------------------------------------------------------|

E|------------------------------------------------------------------------|
B|------------------------------------------------------------------------|
G|------------------------------------------------------------------------|
D|------------------------------------------------------------------------|
A|--2--0--2--0--2----5----4--5--4--5----5----4--5--4--5----5--4--5--4--5--|
E|------------------------------------------------------------------------|

E|------------------------|
B|------------------------|
G|------------------------|
D|------------------------|
A|--5----4--5--4--5-------|
E|------------------------|

E|----------------------------------|
B|----------------------------------|
G|----------------------------------|
D|--4-------2-----------------------| x2
A|--2-------0-------5-------4-------|
E|------------------3-------2-------|

E|--------------------------------------------------|
B|--------------------------------------------------|
G|--------------------------------------------------|
D|--4-----4-----2-----2-----------------------------| x4
A|--2-----2-----0-----0-----5-----5-----4-----4-----|
E|--------------------------3-----3-----2-----2-----|

E|-------------------------------------------------------------------------|
B|-------------------------------------------------------------------------|
G|-------------------------------------------------------------------------|
D|--4---------4--------4-------4---------4------------4---------4-------4--|
A|--2---------2--------2-------2---------2------------2---------2-------2--|
E|-------------------------------------------------------------------------|

B|-------------------------------------------------------------------------|
G|--6-----6-----6--6------2-----------2------------------------------------|
D|--4-----4-----4--4------0------4----0------------------------------------| x7
A|-------------------------------2-----------------------------------------|
E|-------------------------------------------------------------------------|

E|-----------------------------------------------------------------|
B|-----------------------------------------------------------------|
G|--6-----6-----6----6----2---------------2------------------------|
D|--4-----4-----4----4----0---------4-----0--------4---------------|
A|----------------------------------2--------------2---------------|
E|-----------------------------------------------------------------|
Related for Lets Get It Started tab