Song name
# A B C D E F G H I J K L M N O P Q R S T U V W X Y Z

Black Eyed Peas - Where Is The Love tab

-------------------------------------------------------------------------------
	              `Where Is The Love?` - Black Eyed Peas
-------------------------------------------------------------------------------
Tabbed by: Matt Middleton
Email: middleton.matt@hotmail.co.uk

Tuning: Standard

This is the hook heard predominantly in the intro and first verse:
e|-------------------------------------------------|
B|-------------------------------------------------|
G|--------2----------------------------------------|
D|-3--------3-2------2-3-0----------------8---8----|
A|------3----------3-----------5-8-----------------|
E|---------------------------------6----6---6------|


This is the slide guitar heard in the second half of the first chorus and the first half 
the choruses thereafter:
e|-----------------------|
B|--15\5-----------15\---|
G|-----------------------|
D|-----------------------|
A|-----------------------|
E|-----------------------|

This is the rising notes heard in the second half of the choruses (not used at all in 
first chorus though) and in the outro:
e|---------------------------------------------------------------------------|
B|-13-13-13-13-13-13-13-13-15-15-15-15-15-15-15-15-17-17-17-17-17-17-17-17-18|
G|---------------------------------------------------------------------------|
D|---------------------------------------------------------------------------|
A|---------------------------------------------------------------------------|
E|---------------------------------------------------------------------------|

e|----------------------|
B|-18-18-18-18-18-18-18-|
G|----------------------|
D|----------------------|
A|----------------------|
E|----------------------|


I believe that this is 100% accurate.
Tap to rate this tab
# A B C D E F G H I J K L M N O P Q R S T U V W X Y Z