Song name
# A B C D E F G H I J K L M N O P Q R S T U V W X Y Z

Black Eyed Peas - Boob Boob Pow tab

Title: Boom Boom Pow
Artist: Black Eyed Peas

For all the hating, the protest and everything, write to this e-mail: ko.lyric@yahoo.com

That's it basically:

Intro: 

E|------------------------------------------------------------------|
B|------------------------------------------------------------------|
G|------------------------------------------------------------------|
D|------------------------------------------------------------------|
A|--2-2-5--2-2-5--2-2-5---------------------------------------------|
E|--0-0-5--0-0-5--0-0-5---------------------------------------------| etc, you get the idea.

Verse:

E|---------------------------------------------------------------|
B|---------------------------------------------------------------|
G|---------------------------------------------------------------|
D|---------------------------------------------------------------|
A|---------------------------------------------------------------|
E|--0-0-1-3-0----------------------------------------------------|
    . . . . . (muting)

Breakdown (2:40)

E|---------------------------------------------------------------|
B|---------------------------------------------------------------|
G|---------------------------------------------------------------|
D|---------------------------------------------------------------|
A|---------------------------------------------------------------|
E|--3-3-0-1-3----------------------------------------------------|
    . . . . . (muting)


Tablature Notation

h - hammer on 
p - pull off 
b - bend string up
r - release bend
/ - slide up
\ - slide down
v - vibrato (or ~)
t - right hand tap
x - play 'note' with heavy muting
Tap to rate this tab
 
# A B C D E F G H I J K L M N O P Q R S T U V W X Y Z