Song name
# A B C D E F G H I J K L M N O P Q R S T U V W X Y Z

Black Eyed Peas - Anxiety tab

The other version was standard, this one is on Drop D

INTRO:
E|-----------5------------3-------|------------8---------------3------------|
B|--------------------------------|-----------------------------------------|
G|--------5------------2----------|---------5---------------2---------------| 1X
D|-----7-----------3--------------|-----7---------------3-------------------|
A|--------------------------------|-----------------------------------------|
D|--7-----------3-----------------|--7---------------3----------------------|

 RIFF A:
E|--------------------------------|-----------------------------------------|
B|--------------------------------|---------------5-------------------------|
G|---------------5----------------|-----------------------------------------| 
D|--7-7---5h7p5-----7-5-7---------|--7-7---5h7p5-----7-5h7p5----------------|\ 
A|--7-7---------------------------|--7-7------------------------------------| \
D|--7-7---------------------------|--7-7------------------------------------|  \2X

E|--------------------------------|-----------------------------------------|  / 
B|--------------------------------|---------------5-------------------------| /
G|---------------5----------------|-----------------------------------------|/   
D|--3-3---5h7p5-----7-5-7---------|--3-3---5h7p5-----7-5h7p5----------------|
A|--3-3---------------------------|--3-3------------------------------------|
D|--3-3---------------------------|--3-3------------------------------------|

 RIFF B:
E|--------------------------------|
B|--------------------------------|
G|--------------------------------| 2X
D|--7-7---7-7-----3-3---3-3-------|
A|--7-7---7-7-----3-3---3-3-------|
D|--7-7---7-7-----3-3---3-3-------|

 PRE-CHORUS:
E|--------------------------------|
B|--------------------------------|
G|--------------------------9-9---| 3X
D|--7-7--10p9-7--9-7-10-7---------|
A|--------------------------------|
D|--------------------------------|

 CHORUS:
E|--------XXXX--------------------|
B|--------XXXX--------------------|
G|--------XXXX--------------------| 2X
D|--7-7---------------------------|
A|--7-7----------5/7--5/3---------|
D|--7-7---------------------------|

E|--------------------------------|-----------------------------------------|
B|--------------------------------|-----------------------------------------|
G|--------------------------------|-----------------------------------------|
D|--3-3---------------------------|--3-3------------------------------------|
A|--3-3----3p0--2h3p2--0----------|--3-3---3p0--2/0-------------------------|
D|--3-3---------------------------|--3-3------------------------------------|

E|--------XXXX--------------------|
B|--------XXXX--------------------|
G|--------XXXX--------------------| 2X
D|--7-7---------------------------|
A|--7-7----------5/7--5/3---------|
D|--7-7---------------------------|

E|--------------------------------|-----------------------------------------|
B|--------------------------------|-----------------------------------------|
G|--------------------------------|-----------------------------------------|
D|--3-3---------------------------|--3-3------------------------------------|
A|--3-3----3p0--2h3p2--0----------|--3-3---3p0--2/0-------------------------|
D|--3-3---------------------------|--3-3------------------------------------|
 
 RIFF C: THIS IS THE PART WHERE HE'S RAPPING AND THERE'S A LITTLE PAUSE
E|--------------------------------|-----------------------------------------|
B|--------------------------------|---------------5-------------------------|
G|---------------5----------------|-----------------------------------------| 
D|--7-7---5h7p5-----7-5-7---------|--7-7---5h7p5-----7-5h7p5----------------|
A|--7-7---------------------------|--7-7------------------------------------|
D|--7-7---------------------------|--7-7------------------------------------|

E|--------------------------------|-----------------------------------------|
B|--------------------------------|---------------5-------------------------|
G|---------------5----------------|-----------------------------------------| 
D|--3-3---5h7p5-----7-5-7---------|--3-3---5h7p5-----7----------------------|
A|--3-3---------------------------|--3-3------------------------------------|
D|--3-3---------------------------|--3-3------------------------------------|

E|--------------------------------|-----------------------------------------|
B|--------------------------------|---------------5-------------------------|
G|---------------5----------------|-----------------------------------------| 
D|--7-----5h7p5-----7-5-7---------|--7-7---5h7p5-----7-5h7p5----------------|
A|--7-----------------------------|--7-7------------------------------------| 
D|--7-----------------------------|--7-7------------------------------------|
  AFTER THIS CONTINUE THE OTHER HALF OF RIFF A

 RIFF D:
E|-----------5--------------------|-----------3-----------------------------|
B|--------------------------------|-----------------------------------------|
G|--------5-----------------------|--------2--------------------------------| 
D|--7-7---------7-7---------------|---3-3----------3-3----------------------|
A|--7-7---------7-7---------------|---3-3----------3-3----------------------|
D|--7-7---------7-7---------------|---3-3----------3-3----------------------|

E|-----------8--------------------|-----------3-----------------------------|
B|--------------------------------|-----------------------------------------|
G|--------5-----------------------|--------2--------------------------------| 
D|--7-7---------7-7---------------|---3-3----------3-3----------------------|
A|--7-7---------7-7---------------|---3-3----------3-3----------------------|
D|--7-7---------7-7---------------|---3-3----------3-3----------------------|


SONG ORDER
-----------
INTRO
RIFF A
RIFF B
PRE-CHORUS
CHORUS
RIFF C
RIFF D
RIFF A
PRE-CHORUS
CHORUS
INTRO
PRE-CHORUS
CHORUS
Tap to rate this tab
# A B C D E F G H I J K L M N O P Q R S T U V W X Y Z