Song name
# A B C D E F G H I J K L M N O P Q R S T U V W X Y Z

Black Eyed Peas - I Gotta Feeling tab

Sounds great when you finger pick this:

e |----------------------------------------------------------------------|
b |-3-3-3-3--1-1--0-0--1-1-1-1-1-1-1-1--0-0-0-0-0-0-0-0--1-1-1-1-1-1-1-1-|
g |----------------------------------------------------------------------|
d |----------------------------------------------------------------------|
a |--------------------3-3-3-3-3-3-3-3--2-2-2-2-2-2-2-2--3-3-3-3-3-3-3-3-|
e |-3-3-3-3--3-3--3-3----------------------------------------------------|

Or when you strum the the chords:

e |-0-0-0-0--0-0--0-0--0-0-0-0-0-0-0-0--0-0-0-0-0-0-0-0--0-0-0-0-0-0-0-0-|
b |-3-3-3-3--1-1--0-0--1-1-1-1-1-1-1-1--0-0-0-0-0-0-0-0--1-1-1-1-1-1-1-1-|
g |-0-0-0-0--0-0--0-0--0-0-0-0-0-0-0-0--0-0-0-0-0-0-0-0--0-0-0-0-0-0-0-0-|
d |-0-0-0-0--0-0--0-0--2-2-2-2-2-2-2-2--2-2-2-2-2-2-2-2--2-2-2-2-2-2-2-2-|
a |-0-0-0-0--0-0--0-0--3-3-3-3-3-3-3-3--2-2-2-2-2-2-2-2--3-3-3-3-3-3-3-3-|
e |-3-3-3-3--3-3--3-3--0-0-0-0-0-0-0-0--0-0-0-0-0-0-0-0--0-0-0-0-0-0-0-0-|

Also you can finger pick with some of those vocals:

e |----------------------------------------------------------------------|
b |-3-3-3-3--1-1--0-0--1-0-------1-0---1-0-------3-0--1-0-------3-3-0----|
g |------------------------2-0-------------2-0------------2-0------------|
d |----------------------------2---------------2--------------2----------|
a |--------------------3---------------2--------------3------------------|
e |-3-3-3-3--3-3--3-3----------------------------------------------------|

Or we can bring in 2 guitars:

Guitar 1
e |----------------------------------------------------------------------|
b |-3-3-3-3--1-1--0-0--1-1-1-1-1-1-1-1--0-0-0-0-0-0-0-0--1-1-1-1-1-1-1-1-|
g |----------------------------------------------------------------------|
d |----------------------------------------------------------------------|
a |--------------------3-3-3-3-3-3-3-3--2-2-2-2-2-2-2-2--3-3-3-3-3-3-3-3-|
e |-3-3-3-3--3-3--3-3----------------------------------------------------|

Guitar 2
e |----------------------------------------------------------------------|
b | --------------------1-0------1-0-----1-0------3-0-----1-0------3-3-0-|
g |----------------2-0-----2-0-------2-0----2-0-------2-0----2-0---------|
d |----------------------------2----------------2----------------2-------|
a |----------------------------------------------------------------------|
e |----------------------------------------------------------------------|

-Taylor Nielsen
Tap to rate this tab
# A B C D E F G H I J K L M N O P Q R S T U V W X Y Z