Song name
# A B C D E F G H I J K L M N O P Q R S T U V W X Y Z

Black Eyed Peas - Showdown tab

Tabbed by: tekkno27
Email: tekkno27@yahoo.com

Tuning: Standard

e|---------------------------------------------------------------------------|
B|---------------------------------------------------------------------------|
G|---------------------------------------------------------------------------|
D|-------5--5-----12--12--12---10--10---8--8--8------------------------------|
A|-------3--3-----10--10--10---8---8----6--6--6------------------------------|
E|---------------------------------------------------------------------------|


e|---------------------------------------------------------------------------|
B|---------------------------------------------------------------------------|
G|---------------------------------------------------------------------------|
D|-------5--5-----12--12--12---10--10---8--8--8------------------------------|
A|-------3--3-----10--10--10---8---8----6--6--6------------------------------|
E|---------------------------------------------------------------------------|

That's all I got :)
Tap to rate this tab
 
# A B C D E F G H I J K L M N O P Q R S T U V W X Y Z