Song name
# A B C D E F G H I J K L M N O P Q R S T U V W X Y Z

Black Eyed Peas - I Gotta Feeling tab

Hey guys its Josh this is my first tab/chords so hope you enjoy... and just to 
establish i used the chords from another person version which they did a good job 
with but i have more than just chords so enjoy! 

NO CAPO

Intro: Guitar 1 
              
e|---------------------------------------------------------------------|
B|--3---3---3---3---1---1---0---0---1---1---1---1---1---1---1---1------|
G|--0---0---0---0---0---0---0---0---0---0---0---0---0---0---0---0------|
D|---------------------------------------------------------(0)---------|
A|---------------------------------(3)---------------------------------|
E|-(0)-----------------------------------------------------------------|


e|---------------------------------------------------------------------|
B|--0---0---0---0---0---0---0---0---1---1---1---1---1---1---1---1------|
G|--0---0---0---0---0---0---0---0---0---0---0---0---0---0---0---0------|
D|-------------------------(0)-----------------------------------------|
A|---------------------------------(3)---------------------------------|
E|-(0)-----------------------------------------------------------------|


Guitar 2:

e|---------------------------------------------------------------------|
B|---------------------------------------------------------------------|
G|---------------------------------------------------------------------|
D|---------------------------------------------------------------------|
A|----------------------------------3-3-3-3-3-3-3-3-3-3-3-3-3-3-3-2----|
E|--3-3-3-3-3-3-3-3-3-3-3-3-3-3-3-3------------------------------------|


e|---------------------------------------------------------------------|
B|---------------------------------------------------------------------|
G|---------------------------------------------------------------------|
D|---------------------------------------------------------------------|
A|----------------------------------3-3-3-3-3-3-3-3-3-3-3-3-3-3-3-2----|
E|--0-0-0-0-0-0-0-0-0-0-0-0-0-0-0-0------------------------------------|



-----------------------------------------------------------------------------
*Chords*

Chorus:
           G
I gotta feeling
       C
That tonightís gonna be a good night
       Em
That tonightís gonna be a good night
       C
That tonightís gonna be a good, good night

-----------
Chorus x3
-----------

G
 Tonightís the night, letís live it up
C
 I got my money, letís spend it up
Em 
 Go out and smash it, like oh my God
C
 Jump off that sofa, letís get get off
--------------

G
 I know that weíll have a ball 
      C
If we get down and go out and just loose it all
  Em
I feel stressed and I wanna let it go
        C
Lets go way out, spaced out and losing all control
-------------

G
 Fill up my cup, Mazal Tov
C
 Look at her dancing, just take it off
Em
 Lets paint the town, weíll shut it down
C                                           G
 Letís burn the roof, and then weíll do it again
-------------

G                         
Letís do it, let's do it, letís do it
      C
Letís do it, and do it, and do it, letís live it up
    Em
And do it, and do it, and do it, do it, do it
      C
Letís do it, let's do it, let's do it
--------------

Chorus:
-----------------
               G
Cause I gotta feeling (woo hoo)
       C
That tonightís gonna be a good night
       Em
That tonightís gonna be a good night
       C
That tonightís gonna be a good, good night
-----------------

Chorus
-----------------

G
 Tonightís the night, (hey), letís live it up (letís live it up)
C
 I got my money, (I'm paid), letís spend it up (letís spend it up)
Em 
 Go out and smash it, (smash it), like oh my God (like oh my God)
C
 Jump out that sofa, (c'mon) letís get get off
G
 Fill up my cup, (drank) Mazal Tov (l'haim)
C
 Look at her dancing, (move it, move it), just take it off
Em
 Lets paint the town, (paint the town) weíll shut it down (we'll shut it down)
C                                                      G
 Letís burn the roof, (the roof) and then weíll do it again

G                         
Let's do it, let's do it, let's do it
      C
Let's do it, and do it, and do it, let's live it up
    Em
And do it, and do it, and do it, do it, do it
      C
Let's do it, let's do it, let's do it
-----------------

G
Here we come, here we go, we gotta rock
C
Easy come, easy go, now we on top
Em
Feel the shot, body rock, rock it donít stop
C
Round and round, up and down, around the clock

G
Monday, Tuesday, Wednesday and Thursday
C
Friday, Saturday, Saturday to Sunday
Em
Get get get get get with us, you know what we say
C
Party every day, Pa-pa-party every day

Chorus x2


-----------------------------------------------------------------------------

Tabs* for CHORUS/ use chords for verses! 






  "I got a feeling           that tonightís gonna be a good night"
                (woohh hoooo)
e|-----------------17---15-------------------------------------------|
B|-------------------------------------------------------------------|
G|-12-14-12--17-16----------------17-16-----14-12-9----17----16------| 
D|-------------------------------------------------------------------|
A|-------------------------------------------------------------------|
E|-------------------------------------------------------------------|




  "that tonightís gonna be a good night
e|---------------------------------------------|
B|---------------------------------------------|
G|------17--16-----14----12-9-----18---16------|
D|---------------------------------------------|
A|---------------------------------------------|
E|---------------------------------------------|




  "that tonightís gonna be a good good ni--ght 
e|----------------------------------------------|
B|----------------------------------------------|
G|------19--16----14----12-9-19---19---16-14-12-|
D|----------------------------------------------|
A|----------------------------------------------|
E|----------------------------------------------|



   "I gotta  feeling               "
                    (woooo hoooo)

e|-------------------17----15---------------|
B|------------------------------------------|
G|-12-14-12---17--16------------------------|
D|------------------------------------------|
A|------------------------------------------|
E|------------------------------------------|


Tap to rate this tab
 
# A B C D E F G H I J K L M N O P Q R S T U V W X Y Z