Black Eyed Peas - Now Generation tab

-------------------------------------------------------------------------------
	                          NOW GENERATION - Black Eyed Peas
-------------------------------------------------------------------------------
Tabbed by: Athosbm
Email: athos_barros@hotmail.com


e|---------------------------------------------------------------------|
B|---------------------------------------------------------------------|
G|---------------------------------------------------------------------|
D|---------------------------------------------------------------------|
A|--4/5---7--5--4-----0--2--2/4-----2--0-------------------------------|
E|----------------------------------------2----------------------------|

e|---------------------------------------------------------------------|
B|---------------------------------------------------------------------|
G|---------------------------------------------------------------------|
D|---------------------------------------------------------------------|
A|--2--4--4/5---7--5--4-----0--2--2/4-----2--0-------------------------|
E|-----------------------------------------------2---------------------|

e|---------------------------------------------------------------------|
B|---------------------------------------------------------------------|
G|---------------------------------------------------------------------|
D|---------------------------------------------------------------------|
A|--2--4--4/5---7--5--4-----0--2--2/4-----2--0-------------------------|
E|-----------------------------------------------2---------------------|

e|---------------------------------------------------------------------|
B|---------------------------------------------------------------------|
G|---------------------------------------------------------------------|
D|---------------------------------------------------------------------|
A|--2--4--4/5---7--5--4-----0--2--2/4-----2--0--2--1--0----------------|
E|---------------------------------------------------------------------|

Tap to rate this tab
 
# A B C D E F G H I J K L M N O P Q R S T U V W X Y Z