Song name
# A B C D E F G H I J K L M N O P Q R S T U V W X Y Z

Black Eyed Peas - Gone Going tab

---------------------------------------------------------------
	Gone Going - Black Eyed Peas feat. Jack Johnson
---------------------------------------------------------------
Tabbed by: Terry Shan
Email: kid_say_freeze@hotmail.com

HAHA, my FIRST tab!!! =D  WOOT
This is the best that I can interpret the song. It sounded pretty 
good to me, so just listen to the song and figure out the sliding
and how the song goes. It should be pretty easy to play, SO ENJOY!

Tuning: Standard Tuning: eBGDAE

Chords Used 
   Em (preferably E)  C#m  F#m   G#   A    B(Verse)  B(Chorus)
e|--7-------------7----4----9-----4---5----11--------2--------|
B|--8-------------9----5----10----4---5----12--------4--------|
G|--9-------------9----6----11----5---6----11--------4--------|
D|--9-------------9----6----11----6---7----9---------4--------|
A|--7-------------7----4----9-----6---7--------------2--------|
E|--------------------------------4---5-----------------------|

Chords Progression
 
Intro
   Em or E       C#m
e|-------------------------|
B|---------------------4---|
G|-------9---/---------5---|  x2
D|----9--9---/------6--6---|
A|-7---------/---4---------|
E|-------------------------|

Verse 1
   Em or E    G#m         C#m        A
e|----------------------|----------------------|
B|------------------4---|-------4----------5---|
G|-------9----------5---|-------5----------6---|  x3
D|----9--9-------6--6---|----6--6-------7--7---|   
A|-7--------------------|-4--------------------|
E|------------4---------|------------5---------|

   F#m           F#m             B               B
e|-------9--------------9------|--------11--------------11---|
B|-------10-------------10-----|--------12--------------12---|
G|-------11-------------11-----|----11--11-(11)-----11--11---|  
D|---11----(11)-----11-----(11)|-9---------------9-----------|   
A|-9-------------9-------------|-----------------------------|
E|-----------------------------|-----------------------------|
 (11) means play very softly and short

Chorus 
   Em or E    B          C#m        A
e|----------------------|----------------------|
B|------------------4---|-------4----------5---|
G|-------9----------4---|-------5----------6---|  x3
D|----9--9-------4--4---|----6--6-------7--7---|   
A|-7----------2---------|-4--------------------|
E|----------------------|------------5---------|

----------------------Repeat from Intro-----------------------

| /  slide up

===============================================================
Tap to rate this tab
 
# A B C D E F G H I J K L M N O P Q R S T U V W X Y Z