Song name
# A B C D E F G H I J K L M N O P Q R S T U V W X Y Z

Black Eyed Peas - Lets Get It Started tab

Help us improve GuitareTab! Take a short survey!
The whole song is basically chords. The intro is all bass, come in when the main verse 
play this

Riff 1- Moderately Slow
e|-------------|
B|-------------|
G|-4--7--------|
D|-4--7--5--4--| x2
A|-2--5--5--4--|
E|-------3--2--|

Riff 2
e|---------------------|
B|---------------------|
G|-4-4--7-7------------|
D|-4-4--7-7--5-5--4-4--| x3
A|-2-2--5-5--5-5--4-4--|
E|-----------3-3--2-2--|

Then Riff 1 x1

Then Riff 2 x1

Then Riff 1 x8 (Chorus included)

Riff 3
e|---------------|
B|---------------|
G|-4--7----------|
D|-4--7--5-5--4--| x1
A|-2--5--5-5--4--|
E|-------3-3--2--|


Riff 4
e|-------------------|
B|-------------------|
G|-4-4--7------------|
D|-4-4--7--5-5--4-4--| x1
A|-2-2--5--5-5--4-4--|
E|---------3-3--2-2--|


Riff 2 x3

Riff 1 x1

Riff 2 x1

Riff 1 x4

Riff 5
e|-------------|
B|-------------|
G|-4-----7-----|
D|-4--5--7--4--| x3
A|-2--5--5--4--|
E|----3-----2--|

Riff 6
e|---------------------------------|
B|---------------------------------|
G|-7-7-7-7-7-7-7-9-9-9-9-6-6-6-6-4-|
D|-7-7-7-7-7-7-7-9-9-9-9-6-6-6-6-4-| x1 (Transition into...)
A|-5-5-5-5-5-5-5-7-7-7-7-4-4-4-4-2-|
E|---------------------------------|

Riff 7
e|---------|
B|---------|
G|-4--4-4--|
D|-4--4-4--| x6
A|-2--2-2--|
E|---------|

Riff 8
e|-------------------|
B|-------------------|
G|-4--4-7--7---------|
D|-4--4-7--7-5--5-4--| x2
A|-2--2-5--5-5--5-4--|
E|-----------3--3-2--|

Riff 1 x1

Riff 2 x1

Riff 1 x4

Riff 5 x3

Riff 6 x1

And that's the whole song in order. Sorry if its a little confusing, just listen to the 
and try to play along and you should get it. Please rate me because it took me awhile to 
Also it's my first tab so go easy on me. Thanks again.
Related for Lets Get It Started tab