Song name
# A B C D E F G H I J K L M N O P Q R S T U V W X Y Z

Black Flag - Wound Up tab

Black Flag
Wound Up
Slip It In 1984 SST Records

Standard Tuning

Riff 1
  g                g#           f             e
e-----------------------------------------------------------|
B-----------------------------------------------------------|
G-----------------------------------------------------------|
D-5-5-5-5-5-5-5-5-6-6-6-6-6-6-6-3-3-3-3-3-3-3-2-2-2-2-2-2-2-|
A-5-5-5-5-5-5-5-5-6-6-6-6-6-6-6-3-3-3-3-3-3-3-2-2-2-2-2-2-2-|
E-3-3-3-3-3-3-3-3-4-4-4-4-4-4-4-1-1-1-1-1-1-1-0-0-0-0-0-0-0-|

Riff 2
      g                               g#
e-----------------------------------------------------------------|
B-----------------------------------------------------------------|
G-----------------------------------------------------------------|
D-x-x-5-5-x-x-5-5-x-x-5-5-x-x-5-5-x-x-6-6-x-x-6-6-x-x-6-6-x-x-6-6-|
A-x-x-5-5-x-x-5-5-x-x-5-5-x-x-5-5-x-x-6-6-x-x-6-6-x-x-6-6-x-x-6-6-|
E-x-x-3-3-x-x-3-3-x-x-3-3-x-x-3-3-x-x-4-4-x-x-4-4-x-x-4-4-x-x-4-4-|
  P M     P M     P M     P M     P M     P M     P M     P M

e------------------------|
B------------------------|
G------------------------|
D-x-x-x-x-x-x-33-x-x-3-2-|
A-x-x-x-x-x-x-33-x-x-3-2-|
E-x-x-x-x-x-x-11-x-x-1-0-|
  P         M    P M

Riff 3
 C                          F
e-----------------------------------------------------|
B-----------------------------------------------------|
G---------------------------10-10-10-10-10-10-10-10---|
D-10-10-10-10-10-10-10-10---10-10-10-10-10-10-10-10---|
A-10-10-10-10-10-10-10-10---8--8--8--8--8--8--8--8----|
E-8--8--8--8--8--8--8--8------------------------------|

Riff 4
                     (note im not sure if this part is
                      right it just sounds ok to me)
e-----------------------------------------------------|
B-----------------------------------------------------|
G-9-9-9-8-8-8-7-7-7-4------------10-------10-------10-|
D-9-9-9-8-8-8-7-7-7-4------10-10-10-10-10-8--10-10-8--|
A-7-7-7-6-6-6-5-5-5-2------10-10-8--10-10-8--10-10-8--|
E--------------------------8--8-----8--8-----8--8-----|

ok i suck terribly at solos
so i cant really tab that out + this was my first serious tab

if you know the solo or have any idea what the part of riff 4
actually is feel free to get me at jackolanten@hotmail.com
Tap to rate this tab
# A B C D E F G H I J K L M N O P Q R S T U V W X Y Z