Song name
# A B C D E F G H I J K L M N O P Q R S T U V W X Y Z

Black Flag - Now Shes Black tab

Help us improve GuitareTab! Take a short survey!
Now She's Black
---------------------------------------------------------------------------------------


Intro
e---------------------------------------------------|
B---------------------------------------------------|
G-----------------xx--------------------------------| x4
D-----------------9x---------5-5-2-2-7-5-4-5-2------|
A-2-2/7--7-8-7------xx-7-7-9-----------------2------|
E--------------7--7x-------------------------0------|


e-------------------------------------------------|
B-------------------------------------------------|
G--4-5--2-----4-5--2------4-3--2------4-5--2-9----|
D--4-5--2-2---4-5--2-2----4-3--2-2----4-5--2-9----|
A--2-3--0-2---2-3--0-2----2-3--0-2----2-3--0-7----|
E---------0----------0-----------0----------------|


e-----------------------------|
B-----------------------------|
G--99----12---9--99----12-----|
D--99-9--12---9--99-9--12-----|
A--77-9--10---7--77-9--10-----|
E-----7-------------7---------|

chorus
e------------------------------------------|
B------------------------------------------|
G--9-9-x--x-9-9-9-9---------12-12-12-12----| x4
D--9-9-x--x-9-9-9-9--9-9-9--12-12-12-12----|
A--7-7-x--x-7-7-7-7--9-9-9--10-10-10-10----|
E--------------------7-7-7-----------------|


riff
e-------------------|
B-------------------|
G--------------8----|
D--------------8----|
A--2-2h5p4p2---6----|
E-------------------|

chorus
riff


riff#2
e-------------------------------------------|
B-------------------------------------------|
G-------------------------------------------|
D-----------------------2------7--9-10------|
A--2--------------------2------5--7-8-------|
E--0-0-2-3-0-0-/5-3-2-3-0--2-3--------------|

riff
Related for Now Shes Black tab