Guitaretab - guitar tabs
Song name
# A B C D E F G H I J K L M N O P Q R S T U V W X Y Z

Black Flag - Forever Time tab

Band: Black Flag
Song: Forever Time
Album: My War
Year: 1984

				X2
e||-------------------------------------||
B||-------------------------------------||
G||*-----------------------------------*||
D||*-10-10-----------10-10-----------*||
A||--10--10---9-9-8-7-10--10---9-9-8-7--||
E||--8--8------------8--8-------------||
[ Tab from: http://www.guitaretab.com/b/black-flag/116567.html ]
										X2
e||----------------------------------------------||
B||----------------------------------------------||
G||*--------------------------------------------*||
D||*-5-x5-------5-x5-------5-x5-------5-x5------*||
A||--5-x54-4\--5-x54-4\--5-x54-4\--5-x54-4\--||
E||--3-x3-------3-x3-------3-x3-------3-x3-------||

e|--------------------------------------------|
B|--------------------------------------------|
G|--------------------------------------------|
D|-8-x8-------8-x8-------8-x8-------8-x8------|
A|-8-x8-7-7\--8-x8-7-7\--8-x8-7-7\--8-x8-7-7\-|
E|-6-x6-------6-x6-------6-x6-------6-x6------|

e|--------------------------------------------|
B|--------------------------------------------|
G|--------------------------------------------|
D|-5-x5-------5-x5-------5-x5-------5-x5------|
A|-5-x54-4\--5-x54-4\--5-x54-4\--5-x54-4\-|
E|-3-x3-------3-x3-------3-x3-------3-x3------|

Notation
\		slide down
x		mute
Related for Forever Time tab