Guitaretab - guitar tabs
Song name
# A B C D E F G H I J K L M N O P Q R S T U V W X Y Z

Black Flag - Revenge tab

Standard Tuning

E------------------------------------|-----------------------------------| 
B------------------------------------|-----------------------------------| 
G----4-4-4-4-4-4-4-4-4-4-4-4-4-4-4-4-4-4-4-4-4-4-4-4-4-4-4---------------| 
D----4-4-4-4-4-4-4-4-4-4-4-4-4-4-4-4-4-4-4-4-4-4-4-4-4-4-4---------------| 
A----2-2-2-2-2-2-2-2-2-2-2-2-2-2-2-2-2-2-2-2-2-2-2-2-2-2-2---------------| 
E------------------------------------|-----------------------------------| 

E------------------------------------|-----4-7-4-------------------------| 
B------------------------------------|-----------7-4--4------------------| 
G------------------------------------|---------------6-6-4---------------| 
D-----6-----2----4----6--------------|----------------------6------------| 
A---- 6-----2----4----6--------------------------------------------------| 
e-----4-----0----2----4--------------|-----------------------------------| 

E------------------------------(7)(7)(7)(7)---------(4)-----2-4-2--------| 
B------------------------------(7)(7)(7)(7)---------(4)------------4-2---| 
G------------------------------(7)(7)(7)(7)---------(4)------------------| 
D---2-2-2-2----4-4-4-4---------------|-----------------------------------| 
A---2-2-2-2----4-4-4-4---------------|-----------------------------------| 
e---0-0-0-0----2-2-2-2---------------|-----------------------------------| 

E------------------------------------|-----------------------------------| 
B------------------------------------|-----------------------------------| 
G------------------------------------|-----------------------------------| 
D---2-2-2-2-------6-6-6-6-6-6-6-6----|-----------------------------------| 
A---2-2-2-2-------6-6-6-6-6-6-6-6----|-----------------------------------| 
e---0-0-0-0-------4-4-4-4-4-4-4-4----|-----------------------------------| 

E------------------------------------|-----------------------------------| 
B------------------------------------|-----------------------------------| 
G----4-4-4-4-4-4-4-4-4-4-4-4-4-4-4-4-4-4-4-4-4-4-4-4-4-4-4---------------| 
D----4-4-4-4-4-4-4-4-4-4-4-4-4-4-4-4-4-4-4-4-4-4-4-4-4-4-4---------------| 
A----2-2-2-2-2-2-2-2-2-2-2-2-2-2-2-2-2-2-2-2-2-2-2-2-2-2-2---------------| 
E------------------------------------|-----------------------------------| 

E------------------------------------|-----4-7-4-------------------------| 
B------------------------------------|-----------7-4--4------------------| 
G------------------------------------|---------------6-6-4---------------| 
D-----6-----2----4----6--------------|----------------------6------------| 
A---- 6-----2----4----6--------------------------------------------------| 
e-----4-----0----2----4--------------|-----------------------------------| 
[ Tab from: http://www.guitaretab.com/b/black-flag/132284.html ]
E F# A (bend up) F# (bend up) 
E------------------------------(7)(7)(7)(7)---------(4)-----2-4-2--------| 
B------------------------------(7)(7)(7)(7)---------(4)------------4-2---| 
G------------------------------(7)(7)(7)(7)---------(4)------------------| 
D---2-2-2-2----4-4-4-4---------------|-----------------------------------| 
A---2-2-2-2----4-4-4-4---------------|-----------------------------------| 
e---0-0-0-0----2-2-2-2---------------|-----------------------------------| 


E------------------------------------|-----------------------------------| 
B------------------------------------|-----------------------------------| 
G------------------------------------|-----------------------------------| 
D---2-2-2-2-------6-6-6-6-6-6-6-6----|-----------------------------------| 
A---2-2-2-2-------6-6-6-6-6-6-6-6----|-----------------------------------| 
e---0-0-0-0-------4-4-4-4-4-4-4-4----|-----------------------------------| 

E------------------------------------|-----------------------------------| 
B------------------------------------|-----------------------------------| 
G----4-4-4-4-4-4-4-4-4-4-4-4-4-4-4-4-4-4-4-4-4-4-4-4-4-4-4---------------| 
D----4-4-4-4-4-4-4-4-4-4-4-4-4-4-4-4-4-4-4-4-4-4-4-4-4-4-4---------------| 
A----2-2-2-2-2-2-2-2-2-2-2-2-2-2-2-2-2-2-2-2-2-2-2-2-2-2-2---------------| 
E------------------------------------|-----------------------------------| 


E------------------------------------|-----4-7-4-------------------------| 
B------------------------------------|-----------7-4--4------------------| 
G------------------------------------|---------------6-6-4---------------| 
D-----6-----2----4----6--------------|----------------------6------------| 
A---- 6-----2----4----6--------------------------------------------------| 
e-----4-----0----2----4--------------|-----------------------------------| 

E F# A (bend up) F# (bend up) 
E------------------------------(7)(7)(7)(7)---------(4)-----2-4-2--------| 
B------------------------------(7)(7)(7)(7)---------(4)------------4-2---| 
G------------------------------(7)(7)(7)(7)---------(4)------------------| 
D---2-2-2-2----4-4-4-4---------------|-----------------------------------| 
A---2-2-2-2----4-4-4-4---------------|-----------------------------------| 
e---0-0-0-0----2-2-2-2---------------|-----------------------------------| 

E------------------------------------|-----------------------------------| 
B------------------------------------|-----------------------------------| 
G------------------------------------|-----------------------------------| 
D---2-2-2-2-------6-6-6-6-6-6-6-6----|-----------------------------------| 
A---2-2-2-2-------6-6-6-6-6-6-6-6----|-----------------------------------| 
e---0-0-0-0-------4-4-4-4-4-4-4-4----|-----------------------------------|
Related for Revenge tab
Revenge chords by Black Flag