Song name
# A B C D E F G H I J K L M N O P Q R S T U V W X Y Z

Black Flag - I Dont Care tab

Artist: Black Flag
Song: I Don't Care
Album: Everything Went Black
Tabbed by: Tyler Z.
Email: kid81992@juno.com
Tuning: Standard

e|--------------------------------|
B|--------------------------------|
G|--7-----------------------------|  PLAY
D|--7--7--7-7-7-7-7-7-7-7-7-7-7---| 6 TIMES
A|--5--7--7-7-7-7-7-7-7-7-7-7-7---|
E|-----5--5-5-5-5-5-5-5-5-5-5-5---|

e|-------------------------------------------------|
B|-------------------------------------------------|
G|-------------------------------------------------|
D|--11-11-11-11--11-11-11--11-11-11-11--11-11-11---|
A|--11-11-11-11--11-11-11--11-11-11-11--11-11-11---|
E|--9--9--9--9---9--9--9---9--9--9--9---9--9--9----|

e|-----------------------------------|
B|-----------------------------------|
G|-----------------------------------|
D|--9-9-9-9--9-9-9--9-9-9-9--9-9-9---|
A|--9-9-9-9--9-9-9--9-9-9-9--9-9-9---|
E|--7-7-7-7--7-7-7--7-7-7-7--7-7-7---|

e|-------------------------------------------------|
B|-------------------------------------------------|
G|-------------------------------------------------|
D|--11-11-11-11--11-11-11--11-11-11-11--11-11-11---|
A|--11-11-11-11--11-11-11--11-11-11-11--11-11-11---|
E|--9--9--9--9---9--9--9---9--9--9--9---9--9--9----|

e|-----------------------------------|
B|-----------------------------------|
G|-----------------------------------|
D|--7-7-7-7--7-7-7--7-7-7-7--7-7-7---|
A|--7-7-7-7--7-7-7--7-7-7-7--7-7-7---|
E|--5-5-5-5--5-5-5--5-5-5-5--5-5-5---|

e|--------------------------------|
B|--------------------------------|
G|--7-----------------------------|  PLAY
D|--7--7--7-7-7-7-7-7-7-7-7-7-7---| 4 TIMES
A|--5--7--7-7-7-7-7-7-7-7-7-7-7---|
E|-----5--5-5-5-5-5-5-5-5-5-5-5---|

e|-------------------------------------------------|
B|-------------------------------------------------|
G|-------------------------------------------------|
D|--11-11-11-11--11-11-11--11-11-11-11--11-11-11---|
A|--11-11-11-11--11-11-11--11-11-11-11--11-11-11---|
E|--9--9--9--9---9--9--9---9--9--9--9---9--9--9----|

e|-----------------------------------|
B|-----------------------------------|
G|-----------------------------------|
D|--9-9-9-9--9-9-9--9-9-9-9--9-9-9---|
A|--9-9-9-9--9-9-9--9-9-9-9--9-9-9---|
E|--7-7-7-7--7-7-7--7-7-7-7--7-7-7---|

e|-------------------------------------------------|
B|-------------------------------------------------|
G|-------------------------------------------------|
D|--11-11-11-11--11-11-11--11-11-11-11--11-11-11---|
A|--11-11-11-11--11-11-11--11-11-11-11--11-11-11---|
E|--9--9--9--9---9--9--9---9--9--9--9---9--9--9----|

e|-----------------------------------|
B|-----------------------------------|
G|-----------------------------------|
D|--7-7-7-7--7-7-7--7-7-7-7--7-7-7---|
A|--7-7-7-7--7-7-7--7-7-7-7--7-7-7---|
E|--5-5-5-5--5-5-5--5-5-5-5--5-5-5---|

e|--------------------------------|
B|--------------------------------|
G|--7-----------------------------|  PLAY
D|--7--7--7-7-7-7-7-7-7-7-7-7-7---| 3 TIMES
A|--5--7--7-7-7-7-7-7-7-7-7-7-7---|
E|-----5--5-5-5-5-5-5-5-5-5-5-5---|

e|--------|
B|--------|
G|--7-----|  
D|--7--7--|
A|--5--7--|
E|-----5--|
Tap to rate this tab
# A B C D E F G H I J K L M N O P Q R S T U V W X Y Z