Song name
# A B C D E F G H I J K L M N O P Q R S T U V W X Y Z

Black Flag - No More tab

song: no more
by: black flag

verse
E------------------------------------|
B------------------------------------|
G------------------------------------|
D-------------------88------88-------|
A--6-66666666666666-66-8888-66-8888--|
E--4-44444444444444----6666----6666--|

chorus
E-----------------------------------------------------------|
B-----------------------------------------------------------|
G-----------------------------------------------------------|
D----------------------------------10----10----10----10-----|
A--10-10101010-10-10-101010101010---8-10--8-10--8-10--8-10--|
E---8--8-8-8-8--8--8--8-8-8-8-8-8------8-----8-----8-----8--|

E--------------------------------------------|
B--------------------------------------------|
G--------------------------------------------|
D----------------------------------10---14---|
A--10-10101010-10-10-101010101010---8---12---|
E---8--8-8-8-8--8--8--8-8-8-8-8-8------------|
Tap to rate this tab
# A B C D E F G H I J K L M N O P Q R S T U V W X Y Z