Song name
# A B C D E F G H I J K L M N O P Q R S T U V W X Y Z

Black Flag - Louie Louie tab

Tuning:Standard(EADGBe)
(song order and repeats at bottom)

Intro/Verse
e|-------------------------------|
B|-------------------------------|
G|---------9-9----11-11-11---9-9-|
D|--9-9-9--9-9----11-11-11---9-9-|
A|--9-9-9--7-7-----9--9--9---7-7-|
E|--7-7-7------------------------|

Chorus
e|----------------------------------------|
B|----------------------------------------|
G|--------------9------------11--------9--|
D|------9-----------------11--------------|
A|----9-------7---------9------------7----|
E|--7-------------------------------------|

I don't know the solo...sorry

Outro(this is skeptical, just play this fifth for the outro though)
e|-----|
B|-----|
G|-----|
D|--9--|
A|--7--|
E|--7--|


Intro/Verse                 : 4x
Chorus                      : 4x
Intro/Verse                 : 2x
Solo :(
Intro/Verse(really a chorus): 2x
Outro
Tap to rate this tab
# A B C D E F G H I J K L M N O P Q R S T U V W X Y Z