Song name
# A B C D E F G H I J K L M N O P Q R S T U V W X Y Z

Black Flag - Annihilate This Week tab

Annihilate This Week
---------------------------------------------------------------------------------

intro
e--1-1-1-1-1-1-1-1-1-1-1-1-1-1-1-1--|
B--x-x-x-x-x-x-x-x-x-x-x-x-x-x-x-x--|
G--x-x-x-x-x-x-x-x-x-x-x-x-x-x-x-x--|
D--3-3-3-3-3-3-3-3-3-3-3-3-3-3-3-3--|
A--3-3-3-3-3-3-3-3-3-3-3-3-3-3-3-3--|
E--1-1-1-1-1-1-1-1-1-1-1-1-1-1-1-1--|

verse
e-----------------------------------------------------|
B-----------------------------------------------------|
G-----------------------------------------------------|
D--3-3-3---6-5---5-5-5---6-6-6---9-8---8---11-11-13\--| x4
A--3-3-3---6-5---5-5-5---6-6-6---9-8---8---11-11-13\--|
E--1x1x1x--4-3--x3x3x3x--4x4x4x--7-6--x6x--9--9--11\--|


chorus
e------------------------------------------------------------|
B------------------------------------------------------------|
G------------------------------------------------------------| x4
D--3-x3-x3--3~3~3~3~--3-x3-x3--3~3~3~3--3-x3-x3----8-8--6-6--|
A--3-x3-x3--3~3~3~3~--3-x3-x3--3~3~3~3--3-x3-x3----8-8--6-6--|
E--1-x1-x1--1~1~1~1~--1-x1-x1--1~1~1~1--1-x1-x1----6-6--4-4--|
  m_______m          m_______m         m_______m


verse
chorus


then

e----------------------------------------------------|
B----------------------------------------------------|
G----------------------------------------------------| x4
D--7-7-7-7--5-5-5-5--8-8-8--8-8-8--8-8-8--8-8-8------|
A--7-7-7-7--5-5-5-5--8-8-8--8-8-8--8-8-8--8-8-8------|
E--5-5-5-5--3-3-3-3--6-6-6--6-6-6--6-6-6--6-6-6------|


e---------------------------------|
B---------------------------------|
G---------------------------------|
D--8-8-8--8-8-8--8-8-8--8-8-8-----|
A--8-8-8--8-8-8--8-8-8--8-8-8-----|
E--6-6-6--6-6-6--6-6-6--6-6-6-----|


e------------------------------------------------------------------|
B------------------------------------------------------------------|
G------------------------------------------------------------------|
D------------------------------------------------------------------|
A------------------------------------------------------------------|
E--1/13-13-13-13-13-13-13-13-13-13-13-13---------------------------|


e------------------------------------------------------------------|
B------------------------------------------------------------------|
G------------------------------------------------------------------|
D--3---3-5---5-6---6-8---8-10---10-12---12--15--15--15--15---------|
A--3---3-5---5-6---6-8---8-10---10-12---12--15--15--15--15---------|
E--1---1/3---3/4---4/6---6/8----8//10---10//13--13--13--13---------|


e---------------------------------------------------------------------|
B---------------------------------------------------------------------|
G------3-1-3b(5)-x-----3-1-3b(5)-x-----3p1-3b(5)-r0-1-1~2~3~5~6~9~6~5-|
D--3-x-3-1-3b(5)-x-3-x-3-1-3b(5)-x-3-x-3p1----------------------------|
A--3-x-------------3-x-------------3-x--------------------------------|
E--1-x-------------1-x-------------1-x--------------------------------|


solo
verse
chorus
Tap to rate this tab
# A B C D E F G H I J K L M N O P Q R S T U V W X Y Z