Song name
# A B C D E F G H I J K L M N O P Q R S T U V W X Y Z

Black Flag - Fix Me tab

Help us improve GuitareTab! Take a short survey!
Fix Me - Black Flag
Tabbed by: BdonElitist
Email: BdonElitist@yahoo.com

Tuning: Standard (EADGBe)

Intro/Verse: Main Riff
e|-------------------|    |--------------------|
B|---------------5-5-|    |--------------------|
G|-6666-8888-666-5-5-|    |-6666-8888-666--9-9-|
D|-7777-9999-777-5-5-| or |-7777-9999-777-1010-|
A|-7777-9999-777-3-3-|    |-7777-9999-777-1010-|
E|-5555-7777-555-----|    |-5555-7777-555--8-8-|

other Riff:
e|------------------------------|
B|-7-7-9-9--7-5-4-5-7-5-4-5-7-5-|
G|-7-7-9-9--7-5-4-5-7-5-4-5-7-5-|
D|-7-7-9-9--7-5-4-5-7-5-4-5-7-5-|
A|-5-5-7-7--5-3-2-3-5-3-2-3-5-3-|
E|------------------------------|

and that's it


Related for Fix Me tab