Song name
# A B C D E F G H I J K L M N O P Q R S T U V W X Y Z

Black Flag - Im The One tab

I'm the One
------------

intro
e---------------------------|
B---------------2-----1-----|
G-----------------3---------| x4
D--4-4-4-4-4-4------3-------|
A--4-4-4-4-4-4--------------|
E--2-2-2-2-2-2--------------|


verse
e---------------------------|
B---------------2-----1-----|
G-----------------3---------| x4
D--4-4-4-4-4-4------3-------|
A--4-4-4-4-4-4--------------|
E--2-2-2-2-2-2--------------|


Bridge
e---------------------------|
B---------------------------|
G---------------------------| x8
D--7-7-7-9-8-8-8--15-15-----|
A--7-7-7-9-8-8-8--15-15-----|
E--5-5-5-7\6-6-6--13-13-----|


Chorus
e---------------------------|
B---------------------------|
G---------------------------| x4
D--5-x-4-x-12-xx-11-11------|
A--5-x-4-x-12-xx-11-11------|
E--3-x-2-x-10-xx-9--9-------|


verse
bridge
chorus
verse
bridge/solo
chorus
verse
bridge/solo #2
chorus


Outro
e----------|
B----------|
G----------|
D--8--5~---|
A--8--5~---|
E--6--3~---|
Tap to rate this tab
 
# A B C D E F G H I J K L M N O P Q R S T U V W X Y Z