Song name
# A B C D E F G H I J K L M N O P Q R S T U V W X Y Z

Black Flag - Modern Man tab

Help us improve GuitareTab! Take a short survey!
Modern Man
-------------------------------------------------------------------------------------

intro
e----------------------------------------------------|
B----------------------------------------------------|
G--------------------------9--10-9--10-9--10-9-------|x4
D--2---4-5-4--7---9-10-9---9--10-9--10-9--10-9-------|
A--2---4-5-4--7---9-10-9---7--8--7--8--7--8--7-------|
E--0---2-3-2--5---7-8--7-----------------------------|


Chorus
e----------------------------------------------------|
B----------------------------------------------------|
G----------------------------------------------------| x4
D--7-7-4-4--7-7-4-4--9-11-7-7--9-11-7-7--------------|
A--7-7-4-4--7-7-4-4--9-11-7-7--9-11-7-7--------------|
E--5-5-2-2--5-5-2-2--7-9--5-5--7-9--5-5--------------|


chorus
chorus


Outro
e----------------------------------------------------|
B----------------------------------------------------|
G--------------------------9--10-9--10-9--10-9-------|x2
D--2---4-5-4--7---9-10-9---9--10-9--10-9--10-9-------|
A--2---4-5-4--7---9-10-9---7--8--7--8--7--8--7-------|
E--0---2-3-2--5---7-8--7-----------------------------|
Related for Modern Man tab