Song name
# A B C D E F G H I J K L M N O P Q R S T U V W X Y Z

Black Flag - Nervous Breakdown tab

originally tabbed by Ian higbee, i tried to clean it up
verses
G|------------------------------------------------|
D|------------------------------------------------|
A|-------------7-7-----------5-5------------------|
E|--------7-7-7---7-----5-5-5---5-----------------|
    
chorus
G|------------------------------------------------|
D|------------------------------------------------|
A|------------------------------------------------|
E|-3-3-3-3/5-5-5-5/7-7-7-7-7-7-7-7-7--5-3-5-3-5-3-|

Outro
G|------------------------------------------------|
D|------------------------------------------------|
A|------------------------------------------------|
E|---7-7-7-7-7-7-7-7---7-5-3---5-3-5-3------------|
Tap to rate this tab
# A B C D E F G H I J K L M N O P Q R S T U V W X Y Z