Song name
# A B C D E F G H I J K L M N O P Q R S T U V W X Y Z

Black Flag - Cant Decide tab

Help us improve GuitareTab! Take a short survey!
------------------------------------------------------
Band: Black Flag
Song: Can’t Decide
Album: My War
Year:1984
------------------------------------------------------


									X4
e||------------------------------------------||
B||------------------------------------------||
G||*----------------------------------------*||
D||*----------------------------------------*||
A||-----------5555-3333-4444-2222-1111-0000--||
E||-3333-6666--------------------------------||

e|----------------------------------------------------
B|----------------------------------------------------
G|----------------------------------------------------
D|-5-5---5-5--7-7--7-7---10-10—-10-10—9999999999999999
A|-5-5---5-5--7-7--7-7---10-10—-10-10—9999999999999999
E|-3-3—--3-3--5-5--5-5---8--8---8--8--7777777777777777

								  X2
e||---------------------------------------||
B||---------------------------------------||
G||*------------------------------8888888*||
D||*------------------------------8888888*||
A||-------------------------------6666666-||
E||-0-3(4)---0-3(4)---0-3(4)---0----------||

e|-----------------------------------------
B|-----------------------------------------
G|-----------8888888-----8-8888888-4—-7----
D|-----------8888888-----8-8888888-4--7--7-
A|-----------6666666-----6-6666666-2—-5—-7-
E|0-3(4)---0---------0-0-----------------5-


Notation
#(#)		bend to the fret inside the parenthesis


Related for Cant Decide tab