Song name
# A B C D E F G H I J K L M N O P Q R S T U V W X Y Z

Black Flag - American Waste tab

Hi,

I learn this tune a couple of week ago, 
but I didn't find any accurate tab for it on UG. 
So I tab it myself.

I'm looking for some information about HxC/Noise Guitar.
So if you know a good website or anything else,
please send me a message.

This is the "Rise Above: 24 BF songs" version, if you want
to play the regular version you should move notes a half-step higher...


Black Flag - American Waste 
Tab by Djerzinski

Intro partie 1:
     A                          D                        
     E  E  E  E  E  E  E  E     E  E  E  E  E  E  E  E   
E||--------------------------|--------------------------|
B||--------------------------|--7-----7-----7--7--7--7--|
G||--6-----6-----6--6--6--6--|--7-----7-----7--7--7--7--|
D||--7-----7-----7--7--7--7--|--7--r--7--r--7--7--7--7--|
A||--7--r--7--r--7--7--7--7--|--5-----5-----5--5--5--5--|
E||--5-----5-----5--5--5--5--|--------------------------|


  B                           E                               
  E  E  E  E  E  E  E  E                                   
--------------------------|-------------0--------|
--------------------------|-------------0--------|
--8-----8-----8--8--8--8--|----------------------|
--9-----9-----9--9--9--9--|----------------------|
--9--r--9--r--9--9--9--9--|--(2)-----------------|
--7-----7-----7--7--7--7--|---0------------------|


  E  E  E  E  E  E  E  E     E  E  E  E  E  E  E  E   
--------------------------|--------------------------|
--------------------------|--7-----7-----7--7--7--7--|
--6-----6-----6--6--6--6--|--7-----7-----7--7--7--7--|
--7-----7-----7--7--7--7--|--7--r--7--r--7--7--7--7--|
--7--r--7--r--7--7--7--7--|--5-----5-----5--5--5--5--|
--5-----5-----5--5--5--5--|--------------------------|


  E  E  E  E  E  E  E  E     Q    Q    Q    Q             
--------------------------|----------------------|
--------------------------|----------------------|
--8-----8-----8--8--8--8--|----------------------|
--9-----9-----9--9--9--9--|--2----2----2----2----|
--9--r--9--r--9--9--9--9--|--2----2----2----2----|
--7-----7-----7--7--7--7--|--0----0----0----0----|

Intro partie 2:
  B                                       C           
  E  E  E  E  E  E  E  E     E  E  E  E   Q    E  E   
--------------------------|--------------------------|
--------------------------|--------------------------|
--------------------------|--------------------------|
--------------------------|--------------------------|
--9--9--9--9--9--9--9--9--|--9--9--9--9--10----9--9--|
--7--7--7--7--7--7--7--7--|--7--7--7--7---8----7--7--|


  E  E  E  E  E  E  E  E      Q    E  E  E  E  E  E   
--------------------------|--------------------------|
--------------------------|--------------------------|
--------------------------|--------------------------|
--------------------------|--------------------------|
--9--9--9--9--9--9--9--9--|--10----9--9--9--9--9--9--|
--7--7--7--7--7--7--7--7--|---8----7--7--7--7--7--7--|


                                   scratch            
   Q    E  E  E  E  E  E      Q    Q       Q    Q     
--------------------------|--------------------------|
--------------------------|--------------------------|
--------------------------|--------------------------|
--------------------------|--------------------------|
--10----9--9--9--9--9--9--|--10----------------------|
---8----7--7--7--7--7--7--|---8----///////-----------|

Verse
    D           G                F                               
    E  E  E  E  Q    E   E       Q     E   E   E   E   E   E   4x
|----------------------------|---------------------------------||
|---7-----7------------------|--10----10--10--10--10--10--10---||
|*--7-----7-----4----4-------|--10----10--10--10--10--10--10--*||
|*--7-----7-----5----5-------|--10----10--10--10--10--10--10--*||
|---5-----5-----5----5-------|---8-----8---8---8---8---8---8---||
|---------------3----3--(0)--|---------------------------------||

Chorus
   D           C              A                          
   E  E  E  E  E  E  E  E     E  E  E  E  E  E  E  E   4x
---------------------------|---------------------------||
---7--7--7--7--5--5--5--5--|--2--2--2--2--5--5--5--5---||
*--7--7--7--7--5--5--5--5--|--2--2--2--2--5--5--5--5--*||
*--7--7--7--7--5--5--5--5--|--2--2--2--2--5--5--5--5--*||
---5--5--5--5--3--3--3--3--|--0--0--0--0--3--3--3--3---||
---------------------------|---------------------------||

For the solo, just take the same notes as for the chorus but play its an octave higher.



The worlds got some plans for me
Courthouse, jails and factories
Black and whites on the street
For me for me

I see my place in american waste
Faced with choices I cant take
American waste american waste
On my own I see my fate

On my own on the way out
Small enough its all spelled out
I know what I see what I want
The doors are closed in this maze

I see my place in american waste
Faced with choices I cant take
American waste american waste
On my own I see my fate

Boredom looks for its kicks
Going down on death
I see it coming
I cant do anything

Not for me not for me
I wont end up in the heap
I want out Im free
Burning burning

I see my place in american waste
Faced with choices I cant take
American waste american waste
On my own I see my fate
Tap to rate this tab
 
# A B C D E F G H I J K L M N O P Q R S T U V W X Y Z