Song name
# A B C D E F G H I J K L M N O P Q R S T U V W X Y Z

Black Flag - Rats Eyes tab

main riff
|------------------------------------|
|----------------------3-------3-----|
|--------------------3---3---3-----3-|
|------------------1-------1-----1---|
|-3--3-3-3-3-3-3-3-------------------|
|-1--1-1-1-1-1-1-1-------------------|

chorus
  b  b  b  b  b  b  b
|---------------------|
|---------------------|
|---------------------|
|-4--4--4--4--4--4--4-|
|-2--2--2--2--2--2--2-|
|---------------------|

outro
|----------------------------------------------|
|----------------------------------------------|
|-------------------------------------3--------|
|------------------------------3----3---3------|
|-3----3--3--3--3--3--3--3--1-----1-----1------|
|-1----1--1--1--1--1--1--1---------------------|

b - bend
Tap to rate this tab
 
# A B C D E F G H I J K L M N O P Q R S T U V W X Y Z