Song name
# A B C D E F G H I J K L M N O P Q R S T U V W X Y Z

Black Flag - Revenge tab

Intro after "it's not my imagination..."
e----------------------------|
B----------------------------|
G----------------------------|
D-99999999999999999999999999-|
A-99999999999999999999999999-|
E-77777777777777777777777777-|

Verse

e------------------------|
B------------------------|
G-----99-----------------|
D-66--99-999-44-66666666-|
A-66--77-999-44-66666666-|
E-44-----777-22-44444444-|

e-4-7-4----------------------|
B-4-----7-4------------------|
G-----------6-6-4------------|
D-----------------6-5-4------|
A-----------------------6-5--|
E----------------------------|

"we're gonna get revenge"
e-------------------11--11-11-11-|
B-------------------14^-14-14-14-|
G---------------5^---------------|
D-22222-44444-7------------------|
A-22222-44444-7------------------|
E-00000-22222-5------------------|  hold the B string in the bend position

"we're tired of being screwed
e-------------------|
B-------------------|
G-------------------|
D-22222-66666666666-|
A-22222-66666666666-|
E-00000-44444444444-|


"don't tell me about tomorrow"
e---------------------|
B---------------------|
G---------------------|
D-99xx99x99xxx99xx999-|
A-99xx99x99xxx99xx999-|
E-77xx77x77xxx77xx777-| ya might wanna listen to the song for exact rhythm on this part
just repeat through and that's the song.
Tap to rate this tab
# A B C D E F G H I J K L M N O P Q R S T U V W X Y Z