Song name
# A B C D E F G H I J K L M N O P Q R S T U V W X Y Z

Black Flag - The Crazy Girl tab


|-------------------------------|
|---------------2-1-------------|
|----------1--2-----------------| 
|--2---3----2--3----------------|
|---3---4-----------------------|
|-------------------------------|



|----------------------------------|
|----------------------------------|
|-------------2-4444444------------|
|-2-44444444--0-2222222------------|
|-0-22222222-----------------------|
|----------------------------------|
Tap to rate this tab
# A B C D E F G H I J K L M N O P Q R S T U V W X Y Z