Song name
# A B C D E F G H I J K L M N O P Q R S T U V W X Y Z

Black Flag - Im The One tab

Black Flag - I'm The One
Tabbed by Johnny Resin - johnnyresin@gmail.com


Tuning - E standard down a half step(low to high Eb-G#-C#-F#-Bb-Eb)

check the song for the rhythm, i'm just posting the notes.




---------------------------------------------------------------|
----------3--------2-------------------------------------------|
-------------4--3----------------------------------------------|
---------------------------------------------------------------|
---5-----------------------------------------------------------|
---3-----------------------------------------------------------|
                 ^or may be 2nd fret, i really can't tell, even when playing along 
to the original!

-------------------------------------------------------------|
-------------------------------------------------------------|
-------------------------------------------------------------|
-------------------------------------------------------------|
-------------------------------------------------------------|
--6---8---6-----8---14---------------------------------------|


------------------------------------------------------------|
------------------------------------------------------------|
------------------------------------------------------------|
------------------------------------------------------------|
---6----5------13-----12------------------------------------|
---4----3------11-----10------------------------------------|


simple, but fun!
Tap to rate this tab
 
# A B C D E F G H I J K L M N O P Q R S T U V W X Y Z