Song name
# A B C D E F G H I J K L M N O P Q R S T U V W X Y Z

Black Flag - Depression tab

Intro
E------|
B------|
G------|
D--3---|
A--3---|
E--1---|

Verse
E-------------------------------------------------|
B-------------------------------------------------|
G--------6--6-8--6--6-----6--6--6-6-6-8--8--8--8--|
D--8--8--6--6-8--6--6--8--6--6--6-6-6-8--8--8--8--|
A--8--8--4--4-6--4--4--8--4--4--4-4-4-6--6--6--6--|
E--6--6----------------6--------------------------|

Chorus
E----------------------------------------------|
B----------------------------------------------|
G--------------------------6--6--6-6-6-6-8--8--|
D--6--6--6-6-6-8--8--8--8--6--6--6-6-6-6-8--8--|
A--6--6--6-6-6-8--8--8--8--4--4--4-4-4-4-6--6--|
E--4--4--4-4-4-6--6--6--6----------------------|

Post-Chorus
E--------------------------------------------------|
B--------------------------------------------------|
G--------------------------------------------------|
D--8--8--8-8-8-4--4--4--4--3--9-9-9-9-9-9-9-9-9-9--|
A--8--8--8-8-8-4--4--4--4--3--9-9-9-9-9-9-9-9-9-9--|
E--6--6--6-6-6-2--2--2--2--1--7-7-7-7-7-7-7-7-7-7--|

Intro       x2
Verse       x4
Chorus      x2
Post-Chorus x2
Verse       x4
Chorus      x2
Post-Chorus x2 With some random fills
Verse       x4
Chorus      x2
Post-Chorus x1 Last chord is 1 octave higher
Post-Chorus x1 With a random fill
Solo
Chorus/End  x2
Tap to rate this tab
 
# A B C D E F G H I J K L M N O P Q R S T U V W X Y Z