Song name
# A B C D E F G H I J K L M N O P Q R S T U V W X Y Z

Black Flag - White Minority tab

-------------------------------------------------------------------------------
			    WHITE MINORITY - Black Flag
-------------------------------------------------------------------------------
Tabbed by: MattTheArsonist
Email: sadstatue89@msn.com

Tuning: EADBGe

Intro
e|---------------------------|
B|---------------------------|
G|---------------------------|
D|-4--4-4-4-4---9-9-9--7--9--|
A|-4--4-4-4-4---9-9-9--7--9--|
E|-2--2-2-2-2---7-7-7--5--7--|x4

e|--------------------------------|
B|--------------------------------|
G|--------------------------------|
D|--9-9-9-9-9-9-9-9-9-9-9-9--7-8--|
A|--9-9-9-9-9-9-9-9-9-9-9-9--7-8--|
E|--7-7-7-7-7-7-7-7-7-7-7-7--5-6--|x2

Verse
e|------------------------------|
B|------------------------------|
G|-------------------9-x-9-x-9--|
D|--9-9-9-9-9-9-9-9--9-x-9-x-9--|
A|--9-9-9-9-9-9-9-9--7-x-7-x-7--|
E|--7-7-7-7-7-7-7-7-------------|x4

Chorus

e|---------------------------------------------------------------|
B|---------------------------------------------------------------|
G|-11-11-11-11--11-11---9-9-9-9--9-9-----------------------------|
D|-11-11-11-11--11-11---9-9-9-9--9-9---7-7-7-7-7-7--9-9-9-9-9-9--|
A|--9--9--9--9---9--9---7-7-7-7--7-7---7-7-7-7-7-7--9-9-9-9-9-9--|
E|-------------------------------------5-5-5-5-5-5--7-7-7-7-7-7--|x2


Verse 4x
Chorus 2x
Verse 3x

Outro
e|--------------------------|
B|--------------------------|
G|-------------------9-x-9--|
D|--9-9-9-9-9-9-9-9--9-x-9--|
A|--9-9-9-9-9-9-9-9--7-x-7--|
E|--7-7-7-7-7-7-7-7---------|


That's about it. Pretty easy, I don't know how the other guys tabbing got it wrong.
Tap to rate this tab
# A B C D E F G H I J K L M N O P Q R S T U V W X Y Z