Song name
# A B C D E F G H I J K L M N O P Q R S T U V W X Y Z

Black Flag - Loose Nut tab

Loose Nut
------------------------------------------------------------------------------

intro
e--------------------------------|
B--------------------------------|
G-------x--6-6-6--5-5-5----------| x4
D---3-3-x--6-6-6--5-5-5----------|
A---3-3-x--4-4-4--3-3-3----------|
E---1-1-x------------------------|

verse                  (he improvises here rather than then playing the G#)
e----------------------------------------------------------------|
B----------------------------------------------------------------|
G--------5-5--4-4--5-5-------------------------------------------| x4
D--3-3---5-5--4-4--5-5---6-6-6-6-6-6-6-6-6-6-6-6-6-6-6-6---------|
A--3-3---3-3--2-2--3-3---6-6-6-6-6-6-6-6-6-6-6-6-6-6-6-6---------|
E--1-1-------------------4-4-4-4-4-4-4-4-4-4-4-4-4-4-4-4---------|

e--------|
B--------|
G--------|
D--8-6---|
A--8-6---|
E--6-4---|


chorus
e--------------------------------------------------------|
B--------------------------------------------------------|
G--------------------------------------------------------| x4
D----3-----3--6-6-6--5-5-5-5-----5-----5--8-8-8--7-7-7---|
A--x-3-x-x-3--6-6-6--5-5-5-5---x-5-x-x-5--8-8-8--7-7-7---|
E--x-1-x-x-1--4-4-4--3-3-3-3---x-3-x-x-3--6-6-6--5-5-5---|


intro
verse
chorus
intro
chorus
intro
solo
verse
chorus
intro


outro
e-------------------------------------|
B-------------------------------------|
G-------------------------------------|
D--6-5-6-5-6-5-6-5-6-5----------------|
A--6-5-6-5-6-5-6-5-6-5----------------|
E--4-3-4-3-4-3-4-3-4-3----------------|
Tap to rate this tab
# A B C D E F G H I J K L M N O P Q R S T U V W X Y Z