Song name
# A B C D E F G H I J K L M N O P Q R S T U V W X Y Z

Black Flag - Thirsty And Miserable tab

-------------------------------------------------------------------------------
                             THIRSTY & MISERABLE - Black Flag
-------------------------------------------------------------------------------
Tabbed by: min0r_threat
E-mail: ngrantj@yahoo.com

Tuning: Standard (Hatebreed Version = D-Tuning)
INTRO
e|---------------------------------------------------------------------------|
B|---------------------------------------------------------------------------|
G|---------------------------------------------------------------------------|
D|-------------------------5-------------------------------------------------|
A|-5-777777--5-777777--5-7-3-7--5-777777-5-777777-/////////////////-0--------|
E|-3-555555--3-555555--3-5---5--3-555555-3-555555-/////////////////-0--------|
                                                  (pick slide)
VERSE                                                  
e|---------------------------------------------------------------------------|
B|---------------------------------------------------------------------------|
G|---------------------------------------------------------------------------|
D|------------------------5---------------------------5----------------------|
A|-5-777777--5-777777-5-7-3-7--5-777777--5-777777-5-7-3-7--5-777777----------|
E|-3-555555--3-555555-3-5---5--3-555555--3-555555-3-5---5--3-555555----------|

e|--------------------------------------------------------------------------------------|
B|--------------------------------------------------------------------------------------|
G|--------------------------------------------------------------------------------------|
D|-------------------------------------8------------------------------------------------|
A|-8-101010101010--8-101010101010-8-10-6-10--8-101010101010--5-777777-5-777777----------|
E|-6-8-8-8-8-8-8---6-8-8-8-8-8-8--6-8----8---6-8-8-8-8-8-8---3-555555-3-555555----------|

CHORUS
e|--------------------------------------------------------------------------------------|
B|--------------------------------------------------------------------------------------|
G|--------------------------------------------------------------------------------------|
D|--------222222222222---------22222222222---------222222222222---------22222222222-----|
A|-5-4-3--222222222222--5-4-3--22222222222--5-4-3--222222222222--5-4-3--22222222222-----|
E|-3-2-1--000000000000--3-2-1--00000000000--3-2-1--000000000000--3-2-1--00000000000-----|

PLAY IN THIS ORDER:

VERSE
CHORUS
VERSE
CHORUS
VERSEx2
CHORUS
VERSE

and that's the song!
************************************

| /   slide up
| \   slide down
| h   hammer-on
| p   pull-off
| ~   vibrato
| +   harmonic
| x   Mute note
| b   Bend
| pb  Pre-bend
| br  Bend release
| pbr Pre-bend release
| brb Bend release bend

************************************
Tap to rate this tab
 
# A B C D E F G H I J K L M N O P Q R S T U V W X Y Z