Song name
# A B C D E F G H I J K L M N O P Q R S T U V W X Y Z

Black Flag - Tv Party tab

Gtr I (Eb Ab Db Gb Bb Eb) - 'Untitled'

  Q=205
 4/4
  Gtr I
  Wx4
|--------|
|--------|
|--------|
|--------|
|--------|
|--------|


                   $   $$
    Q  E E E E E E  4x     Q  E E +E  E E E   Q  E E +E  E E E
||------------------||-||-------------------|------------------|
||o----------------o||-||o------------------|------------------|
||------------------||-||-------------------|------------------|
||---------2-3-2----||-||-----2-3-(3)-2-0---|----2-3-(3)-2-0---|
||o-3--3-3-------5-o||-||o-3--------------3-|-3--------------3-|
||------------------||-||-------------------|------------------|


  Q    E     E     E     E     E     E
|----------------------------------------|
|----------------------------------------|
|----------------------------------------|
|-5--(<5>)-(<5>)-(<5>)-(<5>)-(<5>)-(<5>)-|
|-5--(<5>)-(<5>)-(<5>)-(<5>)-(<5>)-(<5>)-|
|-3---<3>---<3>---<3>---<3>---<3>---<3>--|


  Q    E     E     E     E     E     E           Q  Q  E E E E
|-----------------------------------------||-||-----------------|
|----------------------------------------o||-||o----------------|
|-----------------------------------------||-||-----------------|
|-5--(<5>)-(<5>)-(<5>)-(<5>)-(<5>)-(<5>)--||-||--3--3--3-3-3-3--|
|-5--(<5>)-(<5>)-(<5>)-(<5>)-(<5>)-(<5>)-o||-||o-3--3--3-3-3-3--|
|-3---<3>---<3>---<3>---<3>---<3>---<3>---||-||--1--1--1-1-1-1--|


  Q  E E Q  E E   Q  E E +E  E E E   Q  E E +E  E E E
|---------------|------------------|-------------------||
|---------------|------------------|------------------o||
|-5--5-5-3--3-3-|------------------|-------------------||
|-5--5-5-3--3-3-|-5--5-5-(5)-5-5-5-|-5--5-5-(5)-5-5-5--||
|-3--3-3-1--1-1-|-5--5-5-(5)-5-5-5-|-5--5-5-(5)-5-5-5-o||
|---------------|-3--3-3-(3)-3-3-3-|-3--3-3-(3)-3-3-3--||


    Q  E E +E  E E E   Q  E E +E  E E E   Q    E     E     E     E     E     E
||-------------------|------------------|----------------------------------------|
||o------------------|------------------|----------------------------------------|
||-------------------|------------------|----------------------------------------|
||-----2-3-(3)-2-0---|----2-3-(3)-2-0---|-5--(<5>)-(<5>)-(<5>)-(<5>)-(<5>)-(<5>)-|
||o-3--------------3-|-3--------------3-|-5--(<5>)-(<5>)-(<5>)-(<5>)-(<5>)-(<5>)-|
||-------------------|------------------|-3---<3>---<3>---<3>---<3>---<3>---<3>--|


  Q    E     E     E     E     E     E
|------------------------------------------||
|-----------------------------------------o||
|------------------------------------------||
|-5--(<5>)-(<5>)-(<5>)-(<5>)-(<5>)-(<5>)---||
|-5--(<5>)-(<5>)-(<5>)-(<5>)-(<5>)-(<5>)--o||
|-3---<3>---<3>---<3>---<3>---<3>---<3>----||


    Q  Q  E E E E   Q  E E Q  E E   Q  E E +E  E E E   Q  E E +E  E E E
||----------------|---------------|------------------|------------------||
||o---------------|---------------|------------------|-----------------o||
||----------------|-5--5-5-3--3-3-|------------------|------------------||
||--3--3--3-3-3-3-|-5--5-5-3--3-3-|-5--5-5-(5)-5-5-5-|-5--5-5-(5)-5-5-5-||
||o-3--3--3-3-3-3-|-3--3-3-1--1-1-|-5--5-5-(5)-5-5-5-|-5--5-5-(5)-5-5-5o||
||--1--1--1-1-1-1-|---------------|-3--3-3-(3)-3-3-3-|-3--3-3-(3)-3-3-3-||


    Q  E E +E  E E E   Q  E E +E  E E E   Q  E E +E  E E E   Q  E E +E  E E E
||-------------------|------------------|------------------|------------------||
||o------------------|------------------|------------------|-----------------o||
||--7--7-7-(7)-7-7-7-|-3--3-3-(3)-3-3-3-|------------------|-5--5-5-(5)-5-5-5-||
||--7--7-7-(7)-7-7-7-|-3--3-3-(3)-3-3-3-|-3--3-3-(3)-3-3-3-|-5--5-5-(5)-5-5-5-||
||o-5--5-5-(5)-5-5-5-|-1--1-1-(1)-1-1-1-|-3--3-3-(3)-3-3-3-|-3--3-3-(3)-3-3-3o||
||-------------------|------------------|-1--1-1-(1)-1-1-1-|------------------||


                                PM---|
     Q.   E E   E    E    E     E  E  E  E  E  E  E  E
||---------------------------|--------------------------||
||o--------------------------|-------------------------o||
||--10----8------------------|--------------------------||
||--10----8---<10>-<10>-<10>-|-10-10-10-10-10-10-10-10--||
||o--8----6---<10>-<10>-<10>-|-10-10-10-10-10-10-10-10-o||
||-------------<8>--<8>--<8>-|--8--8--8--8--8--8--8--8--||


             PM---|               PM---|
   Q.   E E  E  E  E    Q.   E E  E  E  E
|--------------------|---------------------|
|--------------------|---------------------|
|-10----8------------|-10----8-------------|
|-10----8---10-10-10-|-10----8---10-10-10--|
|--8----6---10-10-10-|--8----6---10-10-10--|
|------------8--8--8-|------------8--8--8--|


                                D.S.S.
  Q  Q  E E E E   +E  E E E E E E E
|---------------|-------------------|-----|
|---------------|-------------------|-----|
|---------------|-------------------|-----|
|-3--3--3-3-3-5-|-(5)-5-5-5-5-5-5-5-|-----|
|-3--3--3-3-3-5-|-(5)-5-5-5-5-5-5-5-|-----|
|-1--1--1-1-1-3-|-(3)-5-3-3-3-3-3-3-|-----|



Duration Legend
---------------
W - whole; H - half; Q - quarter; E - 8th; S - 16th; T - 32nd; X - 64th; a - acciaccatura
+ - note tied to previous; . - note dotted; .. - note double dotted
Uncapitalized letters represent notes that are staccato (1/2 duration)
Irregular groupings are notated above the duration line
Duration letters will always appear directly above the note/fret number it represents the
duration for.  Duration letters with no fret number below them represent rests.  Multi-
bar rests are notated in the form Wxn, where n is the number of bars to rest for.  Low
melody durations appear below the staff

Tablature Legend
----------------
 h   - hammer-on
 p   - pull-off
 b   - bend
 pb  - pre-bend
 r   - bend release (if no number after the r, then release immediately)
 /\  - slide into or out of (from/to "nowhere")
 s   - legato slide
 S   - shift slide
 - natural harmonic
[n]  - artificial harmonic
n(n) - tapped harmonic
 ~   - vibrato
 tr  - trill
 T   - tap
 TP  - trem. picking
 PM  - palm muting
\n/  - tremolo bar dip; n = amount to dip
 \n  - tremolo bar down
 n/  - tremolo bar up
/n\  - tremolo bar inverted dip
 =   - hold bend; also acts as connecting device for hammers/pulls
 <> - volume swell (louder/softer)
 x   - on rhythm slash represents muted slash
 o   - on rhythm slash represents single note slash

Misc Legend
-----------
 |  - bar
||  - double bar
||o - repeat start
o|| - repeat end
*|  - double bar (ending)
 :  - bar (freetime)
 $  - Segno
 &  - Coda
Tempo markers -  = BPM(8/16=s8/s16), where s8 = swing 8ths, s16 = swing 16ths

Tap to rate this tab
 
# A B C D E F G H I J K L M N O P Q R S T U V W X Y Z