Song name
# A B C D E F G H I J K L M N O P Q R S T U V W X Y Z

Black Flag - Rise Above tab

-----------------------------------------------------------------------------
                             Rise Above - Black Flag
-----------------------------------------------------------------------------
Tabbed by: Andrew Eaton
E-mail: andydrewjeatone@att.net

Tuning: Standard (EADGBE)

Intro:

e|--------------------------------------------------------------------------|
B|--------------------------------------------------------------------------|
G|--------------------------------------------------------------------------|
D|--------------------------------------5-77-77--5-77-77--------------------|
A|-77-66-55-44-77-66-55-44-77-66-55-44--5-77-77--5-77-77--------------------|
E|--------------------------------------3-55-55--3-55-55--------------------|

e|--------------------------------------------------------------------------|
B|--------------------------------------------------------------------------|
G|-------------------5555---------------------------------------------------|
D|--------------5-77-5555-2-3--33333333333333--5--55555555555555--\\\\\\\\--|
A|-77-66-55-44--5-77-3333-2-3--33333333333333--5--55555555555555--\\\\\\\\--|
E|--------------3-55------0-1--11111111111111--3--33333333333333--\\\\\\\\--|

Verse: 

e|--------------------------------------------------------------------------|
B|--------------------------------------------------------------------------|
G|--------------------------------------------------------------------------|
D|---55--55--55--55--5-77-77--5-77-77----55--55--55--55--5-77-77--5-77-77---|
A|-44--44--44--44----5-77-77--5-77-77--44--44--44--44----5-77-77--5-77-77---|
E|-------------------3-55-55--3-55-55--------------------3-55-55--3-55-55---|

Chorus:

e|--------------------------------------------------------------------------|
B|--------------------------------------------------------------------------|
G|-9-xxxxx--------------------------9-xxxxx---------7-xxxxx-----------------|
D|-9-xxxxx--7-xxxxx-5-xxxxx-5-77-77-9-xxxxx-7-xxxxx-7-xxxxx-5-77-77-5-77-77-|
A|-7-xxxxx--7-xxxxx-5-xxxxx-5-77-77-7-xxxxx-7-xxxxx-5-xxxxx-5-77-77-5-77-77-|
E|----------5-xxxxx-3-xxxxx-3-55-55---------5-xxxxx---------3-55-55-3-55-55-|

Solo:

e|----10----10----10----10--------------------------------------------------|
B|-8b----8b----8b----8b----8b-3/-5-55--3/-5-55------------------------------|
G|----------------------------4/-6-66--4/-6-66------------------------------|
D|--------------------------------------------------------------------------|
A|--------------------------------------------------------------------------|
E|--------------------------------------------------------------------------|

e|-121212121212-151515-171717-131313-181818-17--000000-12-15-0-17-19--------|
B|----------------------------------------------000000----------------------|
G|--------------------------------------------------------------------------|
D|--------------------------------------------------------------------------|
A|--------------------------------------------------------------------------|
E|--------------------------------------------------------------------------|

Intro
Verse x2
Chorus
Verse x2
Chorus
Solo
Verse x2
Chorus


************************************

| /   slide up
| \   slide down
| h   hammer-on
| p   pull-off
| ~   vibrato
| +   harmonic
| x   Mute note
| b   Bend
| pb  Pre-bend
| br  Bend release
| pbr Pre-bend release
| brb Bend release bend

************************************
Tap to rate this tab
# A B C D E F G H I J K L M N O P Q R S T U V W X Y Z