Song name
# A B C D E F G H I J K L M N O P Q R S T U V W X Y Z

Black Flag - No More tab

-------------------------------------------------------|
                             No More - Damaged - 1981--| - Black Flag
-------------------------------------------------------|
Tabbed by: MattTheArsonist
E-mail: mattsaari@live.com

Tuning: Standard (EADGBe)

Note: Bass/Drum Intro lasts 1 minute and 15 seconds
              2 Guitars are playing this, there are some crazy improv leads that guitar 2
              is doing, just wing it.


Intro/Verse (1:15)
e|----------------------------------------------------------------|
B|----------------------------------------------------------------|
G|------------------------------------7-7-----------7-7-----------|
D|--5-5-5-5-5-5-5-5-5-5-5-5-5-5-5-5---7-7--7-7-7-7--7-7--7-7-7-7--|
A|--5-5-5-5-5-5-5-5-5-5-5-5-5-5-5-5---5-5--7-7-7-7--5-5--7-7-7-7--|
E|--3-3-3-3-3-3-3-3-3-3-3-3-3-3-3-3--------5-5-5-5-------5-5-5-5--|x4


Chorus (1:30)
e|----------------------------------------------------------------------------|
B|----------------------------------------------------------------------------|
G|---------------------9-----9-----9-----9-------------------------9~---12~---|
D|--9-9-9-9--9-9-9-9---9--9--9--9--9--9--9--9---9-9-9-9--9-9-9-9---9~---12~---|
A|--9-9-9-9--9-9-9-9---7--9--7--9--7--9--7--9---9-9-9-9--9-9-9-9---7~---10~---|
E|--7-7-7-7--7-7-7-7------7-----7-----7-----7---7-7-7-7--7-7-7-7--------------|


Verse x4 (1:38)
Chorus (1:53)
Verse x4 (2:01)


Outro(2:17)
e|-------------------------------------------------------------|
B|-------------------------------------------------------------|
G|---------------------9-----9-----9-----9-----9-----9-----9---|
D|--9-9-9-9--9-9-9-9---9--9--9--9--9--9--9--9--9--9--9--9--9---|
A|--9-9-9-9--9-9-9-9---7--9--7--9--7--9--7--9--7--9--7--9--7---|
E|--7-7-7-7--7-7-7-7------7-----7-----7-----7-----7-----7------|
Tap to rate this tab
 
# A B C D E F G H I J K L M N O P Q R S T U V W X Y Z